Cifra Club

Aprenda

Noite Feliz

Natal

Tab de bajo: Completa
Entra com o vocal

G|-12-14-12-9~-(x2)|-17/19-19-16--17-17-12-|-14--14-17-16-14-12-14-12-9-|
D|-----------------|-----------------------|----------------------------|
A|-----------------|-----------------------|----------------------------|
E|-----------------|-----------------------|----------------------------|
B|-----------------|-----------------------|----------------------------|

G|-19-19-22\21-19-17-19-17-14-|-19~--19-22p19\16-17-~~21~-|-17--------------------|---------------|
D|----------------------------|---------------------------|----17-14-17--15-------|---------------|
A|----------------------------|---------------------------|----------------17-15~~|---------------|
E|----------------------------|---------------------------|-----------------------|----10-11-12~~-|
B|----------------------------|---------------------------|-----------------------|-11------------|
Repete até o final da musica.
Composição de Franz Gruber / Joseph Mohr
Colaboración y revision:
  • Rawin Mc
20 reproducciones

0 comentarios

Ver todos os comentários

¿Conseguiste tocar?

0 Tocaram 0 Ainda não

Grave um vídeo tocando Noite Feliz e nos envie!

00:00 / 00:00
outros vídeos desta música
repetir qualidade Automático
Outros vídeos desta música
00:00 / 00:00
Automático
OK