Cifra Club

Aprenda

Noite Feliz

Natal

Tab de bajo: Versão 2
g-------------------7-7-4-5-5---0-2-2-5-4-2-0-2-0---2-2-5-4-2-0-2-0---
d-5-7-5----5-7-5----------------------------------2-----------------2-
a-------7--------7----------------------------------------------------
e---------------------------------------------------------------------


g-7-7--10--7--4---5--21--5--0---0-------------------------------------
d-----------------------------2---3-0---------------------------------
a-------------------------------------3------5-7-8--------------------
e---------------------------------------------------------------------
Composição de Franz Gruber / Joseph Mohr
Colaboración y revision:
  • Raphael Amin
59 reproducciones

0 comentarios

Ver todos os comentários

¿Conseguiste tocar?

0 Tocaram 0 Ainda não

Grave um vídeo tocando Noite Feliz e nos envie!

00:00 / 00:00
outros vídeos desta música
repetir qualidade Automático
Outros vídeos desta música
00:00 / 00:00
Automático
OK