Pisca-pisca de Natal

Natal

Composição de: Desconhecido
tono: G
E|--------------------------------------------------------------------------------------------|
A|--------------------------------------------------------------------------------------------|
D|--------------------------------------------------------------------------------------------|
G|----------------------------------------------------------2-----4------1-2------------------|
B|-------2p3p5--------------2p3p5---------5-3--------2-5------2-----3-------------------------|
E|------------------2p4p5---------------2-----------------------------------------------------|

E|--------------------------------------------------------------------------------------------|
A|--------------------------------------------------------------------------------------------|
D|--------------------------------------------------------------------------------------------|
G|--------------------------------------------------------------------------------------------|
B|--------------------------------------------------------------------------------------------|
E|------5-7-5-4-5--2-----5-7-5-4-5--2----------7-9-7-6-7-4-----7-9-7-6-7-4--------------------|

Página 1 / 1

Letras y titulo
Acordes y artista

restablecer los ajustes
OK