Cifra Club

Do You Love

Natalie Imbruglia

Cifrado: Principal (guitarra y guitarra eléctrica)
tono: E
Intro (repete duas vezes):

  Guitar 1:
   C#m        F#m        C#m    G#m        A
e|-------0--|--------2---0----|--------------|
B|-----2----|------2----------|---0----0-----|
G|---1------|---1-------------|------------2-|
D|----------|-----------------|------2-------|
A|----------|-----------------|--------------|
E|----------|-----------------|--------------|
  Guitar 2:
e|----------|-----------------|--------------|
B|----------|-----------------|--------------|
G|----------|-1-4-/6-6-6-1----|-1-1-/4-4-4-2-|

Verso (tab 1):

   C#m        G#m       F#m            G#m           A
e|-------0--|---------|-------5---4--|---------------------|
B|-----2----|---0-2-4-|-----2--------|-----0---------------|
G|---1------|-1-------|---2----------|---------4\2p1h2---2-|
D|----------|---------|-4------------|-1-2-------------2---|
A|----------|---------|--------------|---------------------|
E|----------|---------|--------------|---------------------|
                                              muito rapido    (repete duas vezes)

"do you love, do you need love..."
  Guitar 1:
   C#m        F#m        C#m   
e|-------0--|--------2---0----|
B|-----2----|------2----------|
G|---1------|---1-------------|
D|----------|-----------------|
A|----------|-----------------|
E|----------|-----------------|
  Guitar 2:
e|----------|-----------------|
B|----------|-----------------|
G|----------|-1-4-/6-6-6-1----|
 (repete duas vezes)

Repete verso (tab 1).

"something's gotta turn you round..."
| F#m | F#m |

Refrão:

   E            C#m         B      A     B     A            B     A
e||--------0--|-----------|-2------0--||-2--4--0------0--||-2--4--0-----||
B||----0------|-4--2------|----0-0----||------------0----||----------4--||
G||*-1---1----|-------1---|-----------||----------------*||------------*||
D||*----------|-----------|-----------||----------------*||------------*||
A||-----------|-----------|-----------||-----------------||-------------||
E||-----------|-----------|-----------||-----------------||-------------||
   (repete duas vezes)                       ...1º vez     _| ...2ºvez  _|

Repete intro, verso (tab 1 e a "something's gotta
turn you round" part) e refrão.

Bridge:

  Guitar 1:
   C#m        G#m       F#m            G#m           A       
e|-------0--|---------|-------5---4--|---------------------|
B|-----2----|---0-2-4-|-----2--------|-----0---------------|
G|---1------|-1-------|---2----------|---------4\2p1h2---2-|
D|----------|---------|-4------------|-1-2-------------2---|
A|----------|---------|--------------|---------------------|
E|----------|---------|--------------|---------------------|
  Guitar 2:
e|----------|---------|--------------|---------------------|
B|----------|---------|--------------|---------------------|
G|-1~~~~~~~-|-1-------|--2~~~~~~~~~~-|-2-1~~~~~~~~~2~~~1~~-|
D|----------|--4~~~~~-|-4------------|---------------------|
A|----------|---------|--------------|---------------------|
E|----------|---------|--------------|---------------------|

  Guitar 1:
   C#m        G#m       F#m            G#m           A       
e|-------0--|---------|-------5---4--|------------------------|
B|-----2----|---0-2-4-|-----2--------|--------0---------------|
G|---1------|-1-------|---2----------|------------4\2p1h2---2-|
D|----------|---------|-4------------|-1----2-------------2---|
A|----------|---------|--------------|------------------------|
E|----------|---------|--------------|------------------------|
  Guitar 2:
e|----------|---------|--------------|------------------------|
B|--2~~~~~~-|-2-0~~~~-|-0------------|-0--------0-------------|
G|-1--------|---------|--2~~~~~~~~~~-|--1-2-1~~~-1-2-1~~2-1~~-|
D|----------|---------|--------------|------------------------|
A|----------|---------|--------------|------------------------|
E|----------|---------|--------------|------------------------|

Repete "something's gotta turn you round" e a refrão até acabar.
00:00 / 00:00
Otros videos de esta canción
Repetir
Otros videos de esta canción
Composición de G. Clark / Natalie Imbruglia
Colaboración y revisión:
  • Roberta Marques
41 exhibiciones
    • ½ Tono
    • A
    • Bb
    • B
    • C
    • Db
    • D
    • Eb
    • E
    • F
    • F#
    • G
    • Ab
  • Agregar a la lista
    00:00 / 00:00
    OK