Cifra Club

Love You So

Natalie

Cifrado: Principal (guitarra y guitarra eléctrica)
tono: G
standard tuning

D

e-----5-----------2--3---5--5-----------------------|
B----------3----------------------------------------|
G--------2------------------------------------------|
D-----0---------------------------------------------|
A---------------------------------------------------|
E---------------------------------------------------|

A

e-------------2--3---5---3--------------------------|
B----------2----------------------------------------|
G--------2------------------------------------------|
D---------------------------------------------------|
A----0----------------------------------------------|
E---------------------------------------------------|

C

e-------------2--3--2--0----------------------------|
B----------1--------------3-------------------------|
G-------0-------------------------------------------|
D---------------------------------------------------|
A----3----------------------------------------------|
E---------------------------------------------------|

G

e---------------------------------------------------|
B--------------3------------------------------------|
G-----------0---------------------------------------|
D---------0-----------------------------------------|
A---------------------------------------------------|
E------3--------------------------------------------|


anyWay, this is just the loWer paRt. . .
you can play all through out the Song
00:00 / 00:00
Otros videos de esta canción
Repetir
Otros videos de esta canción
Compositor no encontrado.
16 exhibiciones
    • ½ Tono
    • A
    • Bb
    • B
    • C
    • Db
    • D
    • Eb
    • E
    • F
    • F#
    • G
    • Ab
  • Agregar a la lista
    00:00 / 00:00
    OK