Cifra Club

PRC (part. Peso Pluma)

Natanael Cano

Cifrado: Principal (guitarra y guitarra eléctrica)
Selo Cifra Club: esta cifra foi revisada para atender aos critérios oficiais da nossa Equipe de Qualidade.
tono: Gm
[Intro] Eb  Gm  F
        Eb  Gm  F
        Eb  Gm  F

[Tab – Intro e Solo]

   Eb
E|------------------------------------------|
B|-11-10-11-10-11-10-11-10------------------|
G|-------------------------12---------------|
D|------------------------------------------|
A|------------------------------------------|
E|------------------------------------------|

E|-------------------------11-11/13---------|
B|-11-10-11-10-11-10-11/13----13/15---------|
G|------------------------------------------|
D|------------------------------------------|
A|------------------------------------------|
E|------------------------------------------|

   Gm
E|------------------------------------------|
B|-11-10-11-10-11-10-11-10------------------|
G|-------------------------12---------------|
D|------------------------------------------|
A|------------------------------------------|
E|------------------------------------------|

   F
E|----------------------------13---13---13\-|
B|-11-10-11-10-11/13-13-13/15----15---15----|
G|------------------------------------------|
D|------------------------------------------|
A|------------------------------------------|
E|------------------------------------------|

   Eb
E|------------------------------------------|
B|------------------------------------------|
G|------------------------------------------|
D|-8-7-8-7-8-7-8-7--------------------------|
A|-----------------10\9/10------------------|
E|------------------------------------------|

E|------------------------------------------|
B|------------------------------------------|
G|------------------7\6/7-------------------|
D|-8-7-8-7-8-7-8-10-------------------------|
A|------------------------------------------|
E|------------------------------------------|

   Gm                    F
E|------------------------------------------|
B|------------------------------------------|
G|------------------------------------7-----|
D|-8-7-8-7-8-7-8-7-------8-7-8-7-8-10-------|
A|-----------------10-----------------------|
E|------------------------------------------|

                         Eb              Gm
E|------------------------------------------|
B|-6----------------------------------------|
G|-7----8---7----8-7-8---------------8-5-7--|
D|-----10---8---10-8-10--8-------5-8--------|
A|-----------------------10----6------------|
E|------------------------------------------|

              F
E|------------3h5-3-------------------------|
B|------------------6-3---------------------|
G|-5---5------------------5-4-3-------------|
D|---8--------------------------7-6-5-------|
A|------------------------------------8\6/8-|
E|------------------------------------------|

[Primeira Parte]

 Eb
Me levanto, un baño y, luego

Me pongo a forjar
Gm
Es veneno, da pa' arriba
              F
De muy buena calidad
 Eb
Los teléfonos no paran nunca de sonar
     Gm
Si bien es alguna plebita
                        F       E  
Es porque un cliente quiere más

[Refrão]

     Eb 
Y, bien forrados, los paquetes van

No hay pendiente, no puedo falar
  Gm
Siempre estoy listo para cruzar
 F 
Polvo, ruedas y también cristal

Eb
Aquí, el papelito viene y va

Las morritas bien locas se van
 Gm
Disfrutamos este bien o mal
 F
De esta vida, no me vo'a quejar

[Solo] Eb  Gm  F 
       Eb  Gm  F
       Eb  Gm  F

[Segunda Parte]

 Eb
Fino con las Balenciaga

Corridos bien verga sonaban
     Gm
Las morritas, muy bien, bailaban
   F
Y yo ando silver, LV
     Eb
Siento que ando volando ya, carnal

Y, aquí, nunca nos vamos a quejar
    Gm
¿Para qué vamos a voltear pa' atrás?
    F
Ni pedo, yo le voy a atorar

[Refrão Final]

    Eb                             D
Y, bien forrados, los paquetes van
    Eb
No hay pendiente, no puedo falar
  Gm
Siempre estoy listo para cruzar
 F
Polvo, ruedas y también cristal

    Eb                          D
Y, bien forrados, los paquetes van
    Eb
No hay pendiente, no puedo falar
  Gm
Siempre estoy listo para cruzar
 F
Polvo, ruedas y también cristal

[Final] Eb  Gm  F
        Eb  Gm  F
        Eb  Gm  F  Eb
Otros videos de esta canción
    1.787 exhibiciones
    • Simplificar cifrado
      • ½ Tono
      • Am
      • Bbm
      • Bm
      • Cm
      • C#m
      • Dm
      • Ebm
      • Em
      • Fm
      • F#m
      • Gm
      • G#m
    • Agregar a la lista

    Afinação da cifra

    Afinador online

      Ops (: Contenido disponible solo en portugués.
      OK