Cifra Club

A Cor

Natiruts

Tablatura: Principal (guitarra)
Tom: B
[Intro] Gm7  Dm7  Cm7  Eb7+
        Gm7  Dm7  Cm7  Eb7+
        Gm7  Dm7  Cm7  Eb7+
        Gm7  Dm7  Cm7  Eb7+

Gm7      Dm7        Cm7 Eb7+
 Queria tanto te falar
Gm7              Dm7        Cm7  Eb7+
 Das angústias desse meu viver
   Gm7        Dm7         Cm7  Eb7+
A força que afugenta as idéias
Gm7            Dm7           Cm7 Eb7+
E tenta nos impedir de ser mais
Gm7      Dm7                  Cm7 Eb7+
Então a gente põe o pé na estrada
 Gm7         Dm7          Cm7  Eb7+
Coragem não sabe de onde vem
Gm7           Dm7             Cm7    Eb7+
E deixa a promessa de um dia voltar
 Gm7               Dm7              Cm7 Eb7+
Para os braços daquela que te quer bem

 Eb7+      Dm7             Cm7
Se ela te deixou e disse que nunca mais
 Eb7+        Dm7      Cm7
Saiba que levou sentimentos imortais
 Eb7+          Dm7      Cm7
Mas se ela te beijou e disse que vai ficar
Eb7+         Dm7           Cm7
Isso são mistérios não se pode explicar

Gm7  Dm7                  Cm7    Eb7+
Ela diz que precisa-se acreditar
Gm7      Dm7                         Cm7      Eb7+
E vê nos astros coisas que não pode-se pensar
Gm7  Dm7            Cm7     Eb7+
Ela jura aquela volta prometida
Gm7     Dm7                Cm7       Eb7+
E justifica alguma barra que ela passou
 Gm7     Dm7            Cm7           Eb7+
Mas ela sabe muito bem dos seus segredos
Gm7     Dm7                     Cm7    Eb7+
E reconhece que isso tudo pode ter um fim
 Gm7     Dm7                    Cm7   Eb7+
Mas ela busca a perfeição do espelho
Gm7        Dm7             Cm7   Eb7+
E oferece para ele com perdão enfim

  Dm7                Cm7
A cor   daquela pétala de flor
  Dm7                  Cm7
Todo amor daquela pétala de flor
  Dm7                Cm7
A cor   daquela pétala de flor
  Dm7                  Cm7
Todo amor daquela pétala de flor

[Solo]

E|-14b16~--------------------------------------------------------|
B|---------14b16rb14--12-12--12-12-12--14--11~--11--12-----------|
G|---------------------------------------------------------------|
D|------------------------------------------------------13~------|
A|---------------------------------------------------------------|
E|---------------------------------------------------------------|

E|---------------------------14-14------------------------14b16~-|
B|----14-14--12-14-12-14/16~-------1614h12----12--12-------------|
G|11---------------------------------------13--------13----------|
D|---------------------------------------------------------------|
A|---------------------------------------------------------------|
E|---------------------------------------------------------------|

E|16--16-16-16-18-18^-16-14-14h16-14b16rb14-16161616-14b16-------|
B|---------------------------------------------------------------|
G|---------------------------------------------------------------|
D|---------------------------------------------------------------|
A|---------------------------------------------------------------|
E|---------------------------------------------------------------|

E|-16p14p11---------------------------------14-------------------|
B|----------14b16rb14-14-12-14-12-14-14b16~~~~~16rb14--12--11~---|
G|---------------------------------------------------------------|
D|---------------------------------------------------------------|
A|---------------------------------------------------------------|
E|---------------------------------------------------------------|

E|--------------------------------------------------4--6--7--4~--|
B|-12-----------------------------------------------4--7--9--5---|
G|----13-11----------------11~----------------------4--6--8--4---|
D|----------13-11-9-14/13-------13-11-9-9h11-9------4--8--9--6---|
A|----------------------------------------------11~-6--6--7--4---|
E|--------------------------------------------------4------------|
reproducciones 1.271
Acordes para:
    Composição: Natiruts Colaboración y revision:
    • Getúlio Vasconcelos
    • jose conceicao
    • David Faria

    0 comentarios

    mostrar más comentarios

    ¿Conseguiste tocar?

    18 tocaron 2 aún no

    ¡Graba un vídeo tocando A Cor y envianoslo!

    00:00 / 00:00
    outros vídeos desta música
    repetir qualidade Automático
    Outros vídeos desta música
    00:00 / 00:00
    Automático
    OK