Cifra Club

A Cor

Natiruts

Tab de bajo: Principal
  A COR                                                                                                                                                                                                     INTRO:                                                                                                      1-PARTE     3X       |2PARTE VARIAS VEZES (ate 2:15 )   |ultima 
G-------------------------9--|----------------------------------|-------
D----------4------------9--9-|-----------4-------------6--------|-------
A-------4-6--6------4--7-----|-------4-6---6-4-6-6-4-47-7-6-7-6-|-7> aq vc da uma arrasta ate a 16
E--44-7----------------------|--44-7----------------------------|-------                                                                                                                                                     

                                                    entao a gente poe o pe na.....                                                              
G-----------------------------------------|---------------------------
D--------4------------------6-------------|---------------------------
A-----4-6--6-46-46666-4444-7-7-6-7-6-7777-|---------------------------
E-44-7------------------------------------|---------------------------                                                                                                                                                                                                                                                  


REFRÃO:se ela te deixou .....                                                                                                           4x volta pra parte (2)
G-----------------------------------------------||-------
D--2-2-2-------------2~4-44---------------------||------
A--------1~2-1-2-----------22~4-----------------||----------
E----------------2-22------------22-4-2-4-2-4---||----                                                                                                                                                                                                         ae galera acho q e isso escutem bem essa parte o OBS:(~) ESSE SIMBOLO E LIGACAO DAS NOTAS BLZ  OBRIGADO MAIS UMA VEZ BOM SOM PRA TODOS
Composición de Natiruts
Colaboración y revisión:
  • junior
164 vistas

0 comentarios

Ver todos los comentarios

¿Lograste tocar?

1 Tocaron 0 Aún no

¡Graba un video tocando A Cor y envíanoslo!

00:00 / 00:00
Outros vídeos desta música
Repetir Calidad Automático
Outros vídeos desta música
00:00 / 00:00
Automático
OK