Cifra Club

A Justiça Falha

Natiruts

Tab de bajo: Principal
00:08
G|-----------------------------------------------------------------------------------------------------------|
D|-----5--5-----4--4-----3-----------------------------------------------------------------------------------|  (5x)
A|-----------------------------------------------------------------------------------------------------------|
E|-5-5------5-5------5-5----3-5-5-5-0-3----------------------------------------------------------------------|

00:48
G|-----------------------------------------------------------------------------------------------------------| 
D|-----------------------------------------------------------------------------------------------------------|  (3x)
A|-5-5-5-5--3-5-5-5---3---3-5-5-5-5--3-5-5-3-5-3-5-----------------------------------------------------------|
E|------------------5---5------------------------------------------------------------------------------------|

G|-----------------------------------------------------------------------------------------------------------|
D|-----5--5-----4--4-----3-----------------------------------------------------------------------------------|
A|-----------------------------------------------------------------------------------------------------------|
E|-5-5------5-5------5-5----3-5-5-5-0-3----------------------------------------------------------------------|

01:36
G|-----------------------------------------------------------------------------------------------------------|
D|-----5--5-----4--4-----3-----------------------------------------------------------------------------------|  (4x)
A|-----------------------------------------------------------------------------------------------------------|
E|-5-5------5-5------5-5----3-5-5-5-0-3----------------------------------------------------------------------|

02:08
G|-----------------------------------------------------------------------------------------------------------| 
D|---------------5--5-----4-------------------------5--5-----4--4-----3--------------------------------------|
A|-----------------------------------------------------------------------------------------------------------|
E|-1----0----5-5------5-5----1----0----5-5------5-5------5-5------5-5----3-5-5-5-5-0-------------------------|

02:28
G|-----------------------------------------------------------------------------------------------------------| 
D|-----------------------------------------------------------------------------------------------------------|  (10x)
A|-----------------------------------------------------------------------------------------------------------|
E|-3-3-3-0-3-2-2-2-0-2-1-1-1-0-1/5-5-5-0-5-------------------------------------------------------------------|

03:48
G|-----------------------------------------------------------------------------------------------------------|
D|-----------------------------------------------------------------------------------------------------------|
A|-----------------------------------------------------------------------------------------------------------|
E|-3~---2~---1~---5~-----------------------------------------------------------------------------------------|
00:00 / 00:00
Otros videos de esta canción
Repetir
Otros videos de esta canción
Composición de Alexandre Carlo
Colaboración y revisión:
  • Walter Brow
18 exhibiciones
00:00 / 00:00
OK