Cifra Club

Andar Pela Ilha

Natiruts

Tab de bajo: Principal
Natiruts - Andar pela ilha
                                  
G|-------------------------------------------------------
D|--------------------------------(faz1xsó)--------------
A|------7-3--------7-3---------9-5-5h7p5--------9-5------
E|---55-----7-5-55-----7-5-77------------9-7-77-----7-5--

G|--------------------------------------------------
D|--------------------------------------------------
A|--------7-9-7-------7-9-7-----5-7-9-7-----5-7-9-7-
E|--5-7-8-------5-7-8-------7-9---------7-9---------

G|---------------------------------------------------
D|---------------------------------------------------
A|---------------------------------------------------
E|-55-55-77-77-88-88-77-77-55-55-77-77-88-88-88-8-7-5

volta pro começo denovo...

acho que deve estar tudo certo..

mgs.
00:00 / 00:00
Otros videos de esta canción
Repetir
Otros videos de esta canción
Composición de Natiruts
Colaboración y revisión:
  • Marcelo Sganzerla
  • Nilo Lemos
48 exhibiciones
00:00 / 00:00
OK