Cifra Club

Aprenda

Andei Só

Natiruts

Tab de bajo: Principal
Intro:

00:05
G|------|
D|------|
A|------|
E|-7-7~-|

00:07
G|----------------------------------------------------------------------------|
D|----------------------------------------------------------------------------|
A|-4-4-7--------------4-4-7----------4-2------------------4-2-----------------|
E|-------4-7----4-4-7-------4-7----0-----4-3-2-2-2-0-4--0-----4-3-2-2-4-2-0-4-|

00:19
G|-------------------------------------------------------------------------------------|
D|-------------------------------------------------------------------------------------|
A|-------4-4-7--------------4-4-7----------4-2--------------------4-2---------------2~-|
E|-4-4-7-------4-7----4-4-7-------4-7----0-----4-3-2-2-4-2-0-4--0-----4-3-2-2-4-2-0----|

Primeira Parte:

00:33
G|--------------------------------------------------------------|
D|--------------------------------------------------------------|
A|-4-2-4--------------------2-2-2-----2-2-----------------------|
E|--------2-4-2-4--0-2-0-2--------2-2---------------------------|

00:39
G|--------------------------------------------------------------|
D|--------------------------------------------------------------|
A|-4-2-4--------------------2-2-2-----2-2-----------------------|
E|--------4-5-4-5--0-2-0-2--------2-2---------------------------|

00:46
G|--------------------------------------------------------------| 
D|--------------------------------------------------------------|
A|-4-2-4--------------------2-2-2-----2-2-----------------------|
E|--------2-4-2-4--0-2-0-2--------2-2---------------------------|

00:53
G|------------------------------------------------------------------------| 
D|------------------------------------------------------------------------|
A|-4-2-4--------------------2-2-2-----------2-4-2-4---------2-2-2-----2-2-|
E|--------2-4-2-4--0-2-0-2--------2-3-4-2-4---------0-2-0-2-------2-2-----|

01:06
G|--------------------------------------------------------------| 2x
D|--------------------------------------------------------------|
A|-4-2-4--------------------2-2-2-----2-2-----------------------|
E|--------2-4-2-4--0-2-0-2--------2-2---------------------------|

01:19
G|--------------------------------------------------------------|
D|--------------------------------------------------------------|
A|-4-4-4-4---------------------2-2---2-2------------------------|
E|---------2-4-4-4-4-0-2-2-2-2-----2----------------------------|

01:26
G|--------------------------------------------------------------| 2x
D|--------------------------------------------------------------|
A|-2-4-2-4--------------------2-2-2---2-------------------------|
E|----------2-4-2-4--0-2-0-2--------2---------------------------|

01:32
G|--------------------------------------------------------------|
D|--------------------------------------------------------------|
A|-4-4-4-4---------------------2-2---2-2------------------------|
E|---------2-4-4-4-4-0-2-2-2-2-----2----------------------------|

01:38
G|--------------------------------------------------------------|
D|--------------------------------------------------------------|
A|-4-2-4--------------------2-2-2---2---------------------------|
E|--------4-5-4-5--0-2-0-2--------2-----------------------------|

01:45
G|--------------------------------------------------------------|
D|--------------------------------------------------------------|
A|-4-4-4-4---------------------2-2-----2-2----------------------|
E|---------2-4-4-4-4-0-2-2-2-2-----2-2--------------------------|

01:52
G|--------------------------------------------------------------|
D|--------------------------------------------------------------|
A|-4-2-4--------------------2-2-2---2---------------------------|
E|--------4-5-4-5--0-2-0-2--------2-----------------------------|

01:58
G|--------------------------------------------------------------|
D|--------------------------------------------------------------|
A|-4-4-4-4---------------------2-2~-----------------------------|
E|---------2-4-4-4-4-0-2-2-2-2----------------------------------|

Ponte:

02:05
G|---------------------------------------------------------------------------|
D|---------------------------------------------------------------------------|
A|-4-7--------------4-4-7----------4-2------------------4-2---------------2~-|
E|-----4-7----4-4-7-------4-7----0-----4-3-2-2-2-0-4--0-----4-3-2-2-4-2-0----|

Segunda Parte:

02:18
G|--------------------------------------------------------------|
D|--------------------------------------------------------------|
A|-4-2-4--------------------2-2-2-----2-2-----------------------|
E|--------2-4-2-4--0-2-0-2--------2-2---------------------------|

02:24
G|--------------------------------------------------------------|
D|--------------------------------------------------------------|
A|-4-2-4--------------------2-2-2-----2-2-----------------------|
E|--------4-5-4-5--0-2-0-2--------2-2---------------------------|

02:32
G|-----------------------------------------------------------------|
D|-----------------------------------------------------------------|
A|-4-2-4-----------------------------------------------------------|
E|--------2-4-2-4--0-2-0-2-----------------------------------------|

02:36
G|--------------------------------------------------------------| 2x
D|--------------------------------------------------------------|
A|-2-2-2-----------2-4-2-4--------------------------------------|
E|-------2-3-4-2-4---------0-2-0-2------------------------------|

02:51
G|--------------------------------------------------------------| 2x
D|--------------------------------------------------------------|
A|-4-2-4--------------------2-2-2-----2-2-----------------------|
E|--------2-4-2-4--0-2-0-2--------2-2---------------------------|

03:04
G|--------------------------------------------------------------|
D|--------------------------------------------------------------|
A|-4-4-4-4---------------------2-2---2-2------------------------|
E|---------2-4-4-4-4-0-2-2-2-2-----2----------------------------|

03:11
G|--------------------------------------------------------------| 2x
D|--------------------------------------------------------------|
A|-2-4-2-4--------------------2-2-2---2-------------------------|
E|----------2-4-2-4--0-2-0-2--------2---------------------------|

03:17
G|--------------------------------------------------------------|
D|--------------------------------------------------------------|
A|-4-4-4-4---------------------2-2-----2-2----------------------|
E|---------2-4-4-4-4-0-2-2-2-2-----2-2--------------------------|

03:24
G|--------------------------------------------------------------|
D|--------------------------------------------------------------|
A|-4-2-4--------------------2-2-2---2---------------------------|
E|--------4-5-4-5--0-2-0-2--------2-----------------------------|

03:30
G|--------------------------------------------------------------|
D|--------------------------------------------------------------|
A|-4-4-4-4---------------------2-2-----2-2----------------------|
E|---------2-4-4-4-4-0-2-2-2-2-----2-2--------------------------|

03:37
G|--------------------------------------------------------------|
D|--------------------------------------------------------------|
A|-4-2-4--------------------2-2-2---2---------------------------|
E|--------4-5-4-5--0-2-0-2--------2-----------------------------|

03:43
G|--------------------------------------------------------------|
D|--------------------------------------------------------------|
A|-4-4-4-4---------------------2-2-2-----2-2--------------------|
E|---------2-4-4-4-4-0-2-2-2-2-------2-2------------------------|

03:50
G|--------------------------------------------------------------|
D|--------------------------------------------------------------|
A|-4-2-4--------------------2-2-2-----2-------------------------|
E|--------4-5-4-5--0-2-0-2--------2-2---------------------------|

03:57
G|--------------------------------------------------------------|
D|--------------------------------------------------------------|
A|-4-4-4-4---------------------2-2~-----------------------------|
E|---------2-4-4-4-4-0-2-2-2-2----------------------------------|

Final:

04:03
G|---------------------------------------------------------------------------|
D|---------------------------------------------------------------------------|
A|-4-7--------------4-4-7----------4-2------------------4-2---------------2~-|
E|-----4-7----4-4-7-------4-7----0-----4-3-2-2-2-0-4--0-----4-3-2-2-4-2-0----|
Compositor Natiruts
Colaboración y revision:
  • Walter Brow
  • Victor Magalhães
  • Wesley Santos
492 reproducciones

0 comentarios

Mostrar mais comentários

¿Conseguiste tocar?

12 Tocaron 0 Ainda não

Grave um vídeo tocando Andei Só e mande pra gente!

00:00 / 00:00
outros vídeos desta música
repetir qualidade Automático
Outros vídeos desta música
00:00 / 00:00
Automático
OK