Cifra Club

Au de Cabeça

Natiruts

Tab de bajo: Principal
Base

G|--------------------------------------------|
D|--------2---------2----5-4-0------5-4-0-----|
A|---0--3------0--3------------2----------2---|
E|--------------------------------------------|

Descida que ele faz no meio da musica.

G|--------------2-----------------------------|
D|----5-4-2-4-----4---------------------------|
A|------------------0-------------------------|
E|--------------------------------------------|


___________________________________________________________________________
Contribuição: AdonisBasilio  (adonisbasilio@gmail.com)
00:00 / 00:00
Otros videos de esta canción
Repetir
Otros videos de esta canción
Composición de Natiruts
Colaboración y revisión:
  • Adonis Basilio
146 vistas

0 comentarios

Ver todos los comentarios

¿Lograste tocar?

0 Tocaron 0 Aún no

¡Graba un video tocando Au de Cabeça y envíanoslo!

00:00 / 00:00
OK