Cifra Club

Canção Pro Vento

Natiruts

Tab de bajo: Principal
00:01
G |-----------------------------------------------------------------------------------------------------------|
D |-----------------------------------------------------------------------------------------------------------|
A |------2-0-2-0-2-0-----2-0-2-0-2-0-----2-0-2-0-2-0--4--4--0-4-4-4-4-----------------------------------------|
E |-2--2-------------2-2-------------2-2----------------------------------------------------------------------|

G |-----------------------------------------------------------------------------------------------------------|
D |-----------------------------------------------------------------------------------------------------------|
A |------2-0-2-0-2-0-----2-0-2-0-2-0-----2-0-2-0-2-0--4--4--0-4-4-4-4\----------------------------------------|
E |-2--2-------------2-2-------------2-2----------------------------------------------------------------------|

00:36
G |-----------------------------------------------------------------------------------------------------------|
D |-4-4-4-4---------------------------4-4-4-4-----------------------------------------------------------------|
A |---------4-4--4-2--2--0-4-4-4-4------------4-4--4-2--2--0-4-4-4-4------------------------------------------|
E |-----------------------------------------------------------------------------------------------------------|

G |-----------------------------------------------------------------------------------------------------------| 4x
D |-4-4-4-4---------------------------------------------------------------------------------------------------|
A |---------4-4--2--2--0-4-4----------------------------------------------------------------------------------|
E |-----------------------------------------------------------------------------------------------------------|

01:09
G |-----------------------------------------------------------------------------------------------------------| 2x
D |-4-4-4-4---------------------------4-4-4-4-----------------------------------------------------------------|
A |---------4-4--4-2--2--0-4-4-4-4------------4-4--4-2--2--0-4-4-4-4------------------------------------------|
E |-----------------------------------------------------------------------------------------------------------|

01:31
G |-----------------------------------------------------------------------------------------------------------|
D |-----------------------------------------------------------------------------------------------------------|
A |------2-0-2-0-2-0-----2-0-2-0-2-0-----2-0-2-0-2-0--4--4--0-4-4-4-4-----------------------------------------|
E |-2--2-------------2-2-------------2-2----------------------------------------------------------------------|

G |-----------------------------------------------------------------------------------------------------------|
D |-----------------------------------------------------------------------------------------------------------|
A |------2-0-2-0-2-0-----2-0-2-0-2-0-----2-0-2-0-2-0--4--4--0-4-4-4-4-----------------------------------------|
E |-2--2-------------2-2-------------2-2----------------------------------------------------------------------|

01:54
G |-----------------------------------------------------------------------------------------------------------| 3x
D |-4-4-4-4---------------------------------------------------------------------------------------------------|
A |---------4-4--2--2--0-4-4----------------------------------------------------------------------------------|
E |-----------------------------------------------------------------------------------------------------------|

02:11
G |-----------------------------------------------------------------------------------------------------------|
D |-4-4-4-4---------------------------------------------------------------------------------------------------|
A |---------4-4--5--4-----------------------------------------------------------------------------------------|
E |-----------------------------------------------------------------------------------------------------------|

02:16
G |-----------------------------------------------------------------------------------------------------------|
D |---4-4-4-4---------------------------4-4-4-4---------------------------------------------------------------|
A |-----------4-4--4-2--2--0-4-4-4-4------------4-4--4-2--2--0-4-4-4-4----------------------------------------|
E |-2---------------------------------------------------------------------------------------------------------|

G |-----------------------------------------------------------------------------------------------------------| 
D |-4-4-4-4---------------------------4-4-4-4-----------------------------------------------------------------|
A |---------4-4--4-2--2--0-4-4-4-4------------4-4--4-2--2--0-4-4-4-4----4-------------------------------------|
E |------------------------------------------------------------------2----------------------------------------|

02:41
G |-----------------------------------------------------------------------------------------------------------|
D |-----------------------------------------------------------------------------------------------------------|
A |------2-0-2-0-2-0-----2-0-2-0-2-0-----2-0-2-0-2-0--4--4--0-4-4-4-4-----------------------------------------|
E |-2--2-------------2-2-------------2-2----------------------------------------------------------------------|

G |-----------------------------------------------------------------------------------------------------------|
D |-----------------------------------------------------------------------------------------------------------|
A |------2-0-2-0-2-0-----2-0-2-0-2-0-----2-0-2-0-2-0--4--4--0-4-4-4-4-----------------------------------------|
E |-2--2-------------2-2-------------2-2---------------------------------2~\----------------------------------|
00:00 / 00:00
Otros videos de esta canción
Repetir
Otros videos de esta canción
Compositor no encontrado.
Colaboración y revisión:
  • Walter Brow
1 exhibiciones
00:00 / 00:00
OK