Cifra Club

Aprenda

Dou Não Dou

Natiruts

Tab de bajo: Principal
Afinação: Eb-Ab-Db-Gb

RIFF 1 (00:02)
Gb|-----------------------------------------------------------------------------------| 
Db|-----------------------------------------------------------------------------------|
Ab|--------13-13-13-13-11-9-11-13--------13-13-13-13-11-9-11--------------------------| <|
Eb|-11--11------------------------11--11----------------------------------------------|  |
											 | 2x
Gb|-----------------------------------------------------------------------------------|  |
Db|-----------------------------------------------------------------------------------| <|
Ab|--------13-13-13-13-11-9-11-13--------13-13-13-13----------------------------------|
Eb|-11--11------------------------11--11-------------2-4------------------------------|


Você me faz sofrer... (00:25)
Gb|-----------------------------------------------------------------------------------| 3x
Db|-----------------------------------------------------------------------------------|
Ab|--------13-13-13-13-11-9-11-13--------13-13-13-13-11-9-11--------------------------|
Eb|-11--11------------------------11--11----------------------------------------------|

Gb|-----------------------------------------------------------------------------------| 1x
Db|-----------------------------------------------------------------------------------|
Ab|--------13-13-13-13-11-9-11-13--------13-13-13-13----------------------------------|
Eb|-11--11------------------------11--11-------------2-4------------------------------|

Gb|-----------------------------------------------------------------------------------| 3x
Db|-----------------------------------------------------------------------------------|
Ab|--------13-13-13-13-11-9-11-13--------13-13-13-13-11-9-11--------------------------|
Eb|-11--11------------------------11--11----------------------------------------------|

Gb|-----------------------------------------------------------------------------------| 1x
Db|-----------------------------------------------------------------------------------|
Ab|--------13-13-13-13-11-9-11-13--------13-13-13-13----------------------------------|
Eb|-11--11------------------------11--11-------------2-4------------------------------|


REFRÃO (01:14)
Gb|-----------------------------------------------------------------------------------| 1x
Db|-----------------------------------------------------------------------------------|
Ab|-----------------------------------------------------------------------------------|
Eb|-0-0-0~--2-2-2~--0-0-0~--2-2-2~----------------------------------------------------|

Gb|-----------------------------------------------------------------------------------| 1x
Db|-----------------------------------------------------------------------------------|
Ab|-----7-7-7-----7-7-7-----6-6-6-----5-5-5-----4-4-4-----9-9-9-----------------------|
Eb|-5-5-------5-5-------4-4-------3-3-------2-2-------7-7-----------------------------|

Gb|-----------------------------------------------------------------------------------| 1x
Db|-----------------------------------------------------------------------------------|
Ab|-----------------------------------------------------------------------------------|
Eb|-0-0-0~--2-2-2~--0-0-0~--2-2-2~----------------------------------------------------|

Gb|-----------------------------------------------------------------------------------| 1x
Db|-----------------------------------------------------------------------------------|
Ab|-----7-7-7-----7-7-7-----11-11-11-----10-10-10-------------------------------------|
Eb|-5-5-------5-5-------9-9----------8-8----------7~-1~-------------------------------|


RIFF 2 (01:56)
Gb|-----------------------------------------------------------------------------------| 
Db|-----------------------------------------------------------------------------------|
Ab|----13-13-13-13-11-9-11-13-----13-13-13-13-11-9-11---------------------------------| <|
Eb|-11-------------------------11-----------------------------------------------------|  |
											 | 2x
Gb|-----------------------------------------------------------------------------------|  |
Db|-----------------------------------------------------------------------------------| <|
Ab|----13-13-13-13-11-9-11-13--------13-13-13-13--------------------------------------|
Eb|-11------------------------11--11-------------2-4----------------------------------|


Você me faz sofrer... (02:08)
Gb|-----------------------------------------------------------------------------------| 3x
Db|-----------------------------------------------------------------------------------|
Ab|--------13-13-13-13-11-9-11-13--------13-13-13-13-11-9-11--------------------------|
Eb|-11--11------------------------11--11----------------------------------------------|

Gb|-----------------------------------------------------------------------------------| 1x
Db|-----------------------------------------------------------------------------------|
Ab|--------13-13-13-13-11-9-11-13--------13-13-13-13----------------------------------|
Eb|-11--11------------------------11--11-------------2-4------------------------------|

Gb|-----------------------------------------------------------------------------------| 3x
Db|-----------------------------------------------------------------------------------|
Ab|--------13-13-13-13-11-9-11-13--------13-13-13-13-11-9-11--------------------------|
Eb|-11--11------------------------11--11----------------------------------------------|

Gb|-----------------------------------------------------------------------------------| 1x
Db|-----------------------------------------------------------------------------------|
Ab|--------13-13-13-13-11-9-11-13--------13-13-13-13----------------------------------|
Eb|-11--11------------------------11--11-------------2-4------------------------------|


REFRÃO (02:56)
Gb|-----------------------------------------------------------------------------------| 1x
Db|-----------------------------------------------------------------------------------|
Ab|-----------------------------------------------------------------------------------|
Eb|-0-0-0~--2-2-2~--0-0-0~--2-2-2~----------------------------------------------------|

Gb|-----------------------------------------------------------------------------------| 1x
Db|-----------------------------------------------------------------------------------|
Ab|-----7-7-7-----7-7-7-----6-6-6-----5-5-5-----4-4-4-----9-9-9-----------------------|
Eb|-5-5-------5-5-------4-4-------3-3-------2-2-------7-7-----------------------------|

Gb|-----------------------------------------------------------------------------------| 1x
Db|-----------------------------------------------------------------------------------|
Ab|-----------------------------------------------------------------------------------|
Eb|-0-0-0~--2-2-2~--0-0-0~--2-2-2~----------------------------------------------------|

Gb|-----------------------------------------------------------------------------------| 1x
Db|-----------------------------------------------------------------------------------|
Ab|-----7-7-7-----7-7-7-----11-11-11-----10-10-10-------------------------------------|
Eb|-5-5-------5-5-------9-9----------8-8----------7~-1~-------------------------------|


RIFF 3 (03:38)
Gb|-----------------------------------------------------------------------------------| 
Db|-----------------------------------------------------------------------------------|
Ab|--------13-13-13-13-11-9-11-13--------13-13-13-13-11-9-11--------------------------| <|
Eb|-11--11------------------------11--11----------------------------------------------|  |
											 | 2x
Gb|-----------------------------------------------------------------------------------|  |
Db|-----------------------------------------------------------------------------------| <|
Ab|--------13-13-13-13-11-9-11-13--------13-13-13-13----------------------------------|
Eb|-11--11------------------------11--11-------------2-4------------------------------|


FIM (04:02)
Gb|-----------------------------------------------------------------------------------| 1x
Db|-----------------------------------------------------------------------------------|
Ab|-----------------------------------------------------------------------------------|
Eb|-11-11\----------------------------------------------------------------------------|



Observações:

~ - deixe soar a nota
\ - slide down
Compositor Djavan
Colaboración y revision:
  • Walter Brow
22 reproducciones

0 comentarios

Mostrar mais comentários

¿Conseguiste tocar?

0 Tocaron 0 Ainda não

Grave um vídeo tocando Dou Não Dou e mande pra gente!

00:00 / 00:00
outros vídeos desta música
repetir qualidade Automático
Outros vídeos desta música
00:00 / 00:00
Automático
OK