Cifra Club

Espero Que Um Dia

Natiruts

Tablatura: Principal (guitarra)
Tom: F#m
[Intro]

                D7(9)       Bm7
E|----------------0---------2-------5h7----9--9-------|
B|-----------2--5---5-------3---5/7-----7-----7-------|
G|-----2h4------5-----5-----2-----------------7-------|
D|-2h4-----4----4-------4---4-------------------------|
A|--------------5-----------2-------------------------|
E|----------------------------------------------------|

   C#m7         F#m7           D7(9)
E|-7--5-4h5p4---4--2h4p2-------0--0-------------------|
B|-5------------2--------2-----5----------5-----------|
G|-4------------2----------2---5----5---5--------2h4/-|
D|--------------4--------------4------4------2h4------|
A|-----------------------------5----------------------|
E|----------------------------------------------------|

       C#7        Bm7  F#m7
E|-----4-4h5-4----2-----------------------------------|
B|-7---6----------3-----2-----------------------------|
G|-7---4----------2-----2-----------------------------|
D|-----6----------------2-----------------------------|
A|-----4----------2-----------------------------------|
E|----------------------2-----------------------------|

( F#m7  Bm7 )
( F#m7  Bm7 )
( F#m7  Bm7 )
( F#m7  Bm7  C#m7 )

[Primeira Parte]

F#m7                                Bm7                  F#m7
    Espero que um dia você volte atrás do que já decidiu
                                   Bm7                C#m7
Quando foi embora, meu castelo se destruiu, se destruiu
  F#m7                               Bm7
Quase vacilei, mas não pisei na bola
                               F#m7
Tentarei seguir a vida lá fora
                                  Bm7                 C#m7
Entendo, mas tudo vai ser mais difícil sem o teu coração

F#m7                         Bm7
   Não vou cultivar tristeza
                          F#m7
Ficar sofrendo é besteira
                     Bm7
Ando por toda cidade
              C#m7      F#m7
Sem ter medo da verdade
                              Bm7
Não penso estar perdido agora
                    F#m7
Tudo tem a sua hora

Estou bem com meu viver
 Bm7                     C#m7
Tenho calma limpa alma pra não padecer

[Segunda Parte]

 Bm7                                      C#m7
Posso encontrar alguém, muitos caminhos existem
Bm7                                            F#m7
E a chama de um amor que foi eterno pode terminar
 Bm7                                         F#m7
Mas se eu tivesse o mar e você do meu lado agora
 Bm7                  C#m7                     F#m7  C#m7
Seus olhos iam me seguir, sua presença fortificar

[Solo] F#m7  Bm7
       F#m7  Bm7
       F#m7  Bm7
       F#m7  Bm7  C#m7

        P.M.
E|----------------------------------------------------|
B|------------------------9-10~----12b14r12p10--12/14-|
G|----------------9h11-11-----------------------------|
D|-----------9h11-------------------------------------|
A|-12p9-9-12------------------------------------------|
E|----------------------------------------------------|

E|-----------------9--7-7--5h7p5--4h5p4---------------|
B|-10~---10-10----------------------------------------|
G|----------9h11-------------------------6/4p2---4/6--|
D|---------------------------------------------4------|
A|----------------------------------------------------|
E|----------------------------------------------------|

                                       P.M   P.M
E|----------------------------------------------------|
B|-5--------------------------------------------5/7---|
G|---6/4--4p2---4p2---4b6-2----------------6----------|
D|------------4-----4--------4-2h4---7--4-----4-------|
A|----------------------------------------------------|
E|----------------------------------------------------|

E|-5---5----7h9p7-7----5-7-8p7-8-9------9----9--------|
B|---7---7-----------7--------------/10---10---10-----|
G|----------------------------------------------------|
D|----------------------------------------------------|
A|----------------------------------------------------|
E|----------------------------------------------------|

E|-12----12----12-14-12-------------------------------|
B|----14----14----------14-12h14-12--10---------------|
G|--------------------------------------11p9----11p9--|
D|-------------------------------------------11-------|
A|----------------------------------------------------|
E|----------------------------------------------------|

E|----------------------------------------------------|
B|----------------------------------------------------|
G|----11p9-11/13~-------------------------------------|
D|-11-------------------------------------------------|
A|----------------------------------------------------|
E|----------------------------------------------------|

[Primeira Parte]

F#m7                                Bm7                  F#m7
    Espero que um dia você volte atrás do que já decidiu
                                   Bm7                C#m7
Quando foi embora, meu castelo se destruiu, se destruiu
  F#m7                               Bm7
Quase vacilei, mas não pisei na bola
                               F#m7
Tentarei seguir a vida lá fora
                                  Bm7                 C#m7
Entendo, mas tudo vai ser mais difícil sem o teu coração

F#m7                        Bm7
   Não vou cultivar tristeza
                          F#m7
Ficar sofrendo é besteira
                     Bm7
Ando por toda cidade
              C#m7      F#m7
Sem ter medo da verdade
                              Bm7
Não penso estar perdido agora
                    F#m7
Tudo tem a sua hora

Solidão já tive medo
 Bm7                     C#m7
Tenho calma limpa alma e aprendo a viver

[Segunda Parte]

 Bm7                                    C#m7
Posso encontrar alguém, muitos caminhos existem
Bm7                                            F#m7
E a chama de um amor que foi eterno pode terminar
 Bm7                                         F#m7
Mas se eu tivesse o mar e você do meu lado agora
 Bm7                  C#m7                     F#m7  C#m7
Seus olhos iam me seguir, sua presença fortificar
reproducciones 2.624
Acordes para:

    0 comentarios

    mostrar más comentarios

    ¿Conseguiste tocar?

    19 tocaron 2 aún no

    ¡Graba un vídeo tocando Espero Que Um Dia y envianoslo!

    00:00 / 00:00
    outros vídeos desta música
    repetir qualidade Automático
    Outros vídeos desta música
    00:00 / 00:00
    Automático
    OK