Cifra Club

Leve Com Você

Natiruts

Cifrado: Versão 3 (guitarra y guitarra eléctrica)
tono: F
[Intro]

      Am                         F
E|-----------------------------8-8-8-8--8-8-8-8-------------|
B|-----------------------------8-8-8-8--8-8-8-8-------------|
G|----------------5------------0-0-0-0--0-0-0-0-------------|
D|-----7-----5h7-----7---5/7---7-7-7-7--7-7-7-7-------------|
A|--0-----7------------7-------8-8-8-8--8-8-8-8-------------|
E|----------------------------------------------------------|

      Am                         F
E|-----------------------------8--|
B|-----------------------------8--|
G|----------------5------------0--|
D|-----7-----5h7-----7---5/7---7--|
A|--0-----7------------7-------8--|
E|--------------------------------|

Am          F
Leve com você
Am            F
Só o que foi bom
Am         F
Ódio e rancor
            Dm   Em
Não dão em nada, nada
Am           F
Ouço aquele som
Am           F
Lembro de você
Am       F
Como acabou
Em           Dm
Mas não tem nada não
    Em                          Dm
Só guardo o que foi bom no meu coração
    Em                     F
O amor é como o sol, sabe como renascer

Am         F
Sinto o calor
Am            F
De mais um verão
Am          F
Tudo ganha cor
      Em                  Dm
E de nada vai valer lamentar a dor
          Em                           Dm
Nós temos que seguir em frente, a vida não parou
          Em                        Dm
Vai ser difícil de esquecer tudo o que passou
           Em                         F            G
Mas são as quedas que ensinam a cultivar o nosso amor

Am     Em
Pensar
           Dm    Em
No nosso futuro

(Riff 2)

Am          F
Leve com você
Am            F
Só o que foi bom
Am         F
Ódio e rancor
            Dm   Em
Não dão em nada, nada
Am           F
Ouço aquele som
Am           F
Lembro de você
Am       F
Como acabou
Em           Dm
Mas não tem nada não
    Em                          Dm
Só guardo o que foi bom no meu coração
    Em                     F
O amor é como o sol, sabe como renascer

Am         F
Sinto o calor
Am            F
De mais um verão
Am          F
Tudo ganha cor
      Em                  Dm
E de nada vai valer lamentar a dor
          Em                           Dm
Nós temos que seguir em frente, a vida não parou
          Em                        Dm
Vai ser difícil de esquecer tudo o que passou
           Em                         F            G
Mas são as quedas que ensinam a cultivar o nosso amor

Refrão:
Am     Em
Pensar
           Dm    Em
No nosso futuro
Am     Em
Pensar
           Dm    Em
No nosso futuro
Em
 E ser feliz !
Solo:
E|--------------------------------------8-8-8h10-------|
B|--------5-5h6-----5---------------8b-----------10~/--|
G|--7b------------7---7b7p5---5------------------------|
D|--------------------------7--------------------------|
A|-----------------------------------------------------|
E|-----------------------------------------------------|

E|--------8--------7--------8----8----8------12p8-----11-----10p8-----8p7---------|
B|--10-10-----10-10----10-10---10---10---10--------10-----10-------10----10-9-----|
G|------------------------------------------------------------------------------9-|
D|--------------------------------------------------------------------------------|
A|--------------------------------------------------------------------------------|
E|--------------------------------------------------------------------------------|

E|--------------------------------------------------------------------------5-|
B|--8p7---7---------------------------------------------------------------7---|
G|-----9------7-7h8p7-5-----7b9r7-7p5-----5--5h6p5--------------------5h8-----|
D|------------------------------------7-5----------7p5-------------7----------|
A|------------------------------------------------------7-5/6--9--------------|
E|----------------------------------------------------------------------------|

E|--8/12--8--------8---12/15--12----------12------17b--|
B|---------10---10---------------13----13--------------|
G|------------9---------------------14-----------------|
D|-----------------------------------------------------|
A|-----------------------------------------------------|
E|-----------------------------------------------------|

(Riff 1 - 2x)

(Riff 2)
Composición de Alexandre Carlo / Tonho Gebara
Colaboración y revisión:
  • Getúlio Vasconcelos
  • fellipe barbosa
21 vistas
    • ½ Tono
    • A
    • Bb
    • B
    • C
    • Db
    • D
    • Eb
    • E
    • F
    • F#
    • G
    • Ab
  • Agregar a la lista

    0 comentarios

    Ver todos los comentarios

    ¿Lograste tocar?

    0 Tocaron 0 Aún no

    ¡Graba un video tocando Leve Com Você y envíanoslo!

    00:00 / 00:00
    Outros vídeos desta música
    Repetir Calidad Automático
    Outros vídeos desta música
    00:00 / 00:00
    Automático
    OK