Cifra Club

Leve Com Você

Natiruts

Tab de bajo: Principal
Intro
G|---------------------------------------
D|---------------------------------------
A|---------------------------------------
E|--5----8-5---1~------------------------

G|---------------------------------------
D|---------------------------------------
A|---------------------------------------
E|-5-5--3-5-5-5-3-3-1-1---0-1-1-0-3-3----


Verso 


  Leve com você...
G|---------------------------------------
D|---------------------------------------
A|---------------------------------------
E|-5-5--3-5-5-3-3-1-1---0-1-1-3-3--------


 ...nada, nada.
G|---------------------------------------
D|---------------------------------------
A|-5-5--3-5-5-3-5-7-7--5-7-7-5-7---------
E|---------------------------------------

  Ouço aquele som...
G|---------------------------------------
D|---------------------------------------
A|---------------------------------------
E|-5-5--3-5-5-3-3-1-1---0-1-1-3-3--------


  Mas não tem nada não...
G|---------------------------------------
D|---------------------------------------
A|----------------5-5--3-5-5-5-3-5-------
E|-0-0---0-0-0--0------------------------

G|---------------------------------------
D|---------------------------------------
A|-7-7--5-7-7-7-5-7-5-5--3-5-5-5-3-5-----
E|---------------------------------------

G|---------------------------------------
D|---------------------------------------
A|-7-7--5-7-7-7-5-7-8-8--5-8-8-8-5-8-----
E|---------------------------------------

  Sinto o Calor...
G|---------------------------------------
D|---------------------------------------
A|---------------------------------------
E|-5-5--3-5-5-3-3-1-1---0-1-1-3-3--------

  E de nada vai valer lamentar a dor
G|---------------------------------------
D|---------------------------------------
A|----------------5-5--3-5-5-5-3-5-------
E|-0-0---0-0-0--0------------------------
 Nós temos que seguir...
G|---------------------------------------
D|---------------------------------------
A|-7-7--5-7-7-7-5-7-5-5--3-5-5-5-3-5-----
E|---------------------------------------

Mas são as quedas que ensinam a cultivar o nosso amor
G|---------------------------------------
D|-7-7--5-7-7-5-7--8-8-5-8-10-10-10-10---
A|---------------------------------------
E|---------------------------------------

Refrão

G|---------------------------------------
D|---------------------------------------
A|------------------------------5-5------
E|-5-5--3-5-5-3-3-0-0--0-0-0--0----------

G|---------------------------------------
D|---------------------------------------
A|-3-5-5-3-5-7-7--5-7-7-5-7--------------
E|---------------------------------------

Solo
G|---------------------------------------
D|---------------------------------------
A|---------------------------------------
E|-5-5--3-5-5-3-3-1-1---0-1-1-3-3--------

Repete Intro

_______________________________________________________
Contribuição: Vinicius Langer Greter ***ViNi...(vns666@bol.com.br)
Composición de Alexandre Carlo / Tonho Gebara
82 vistas

0 comentarios

Ver todos los comentarios

¿Lograste tocar?

1 Tocaron 0 Aún no

¡Graba un video tocando Leve Com Você y envíanoslo!

00:00 / 00:00
Outros vídeos desta música
Repetir Calidad Automático
Outros vídeos desta música
00:00 / 00:00
Automático
OK