Cifra Club

Liberdade Pra Dentro da Cabeça

Natiruts

Tab de bajo: Principal
INTRODUÇÃO
G--------------------------------------------------------------------
D--------14----14----14´16-14-----------------14----16´18-16---------
A--14´16----16----16----------16-15-14--14´16----16------------------
E--------------------------------------------------------------------

G--------------------------------------------------------------------
D--------------14----------------------------------------------------
A-2-3-4--14´16----16/2--14/------------------------------------------
E---------------------------5----------------------------------------

REFRÃO(4x)
liberdade pra dentro da cabeçaaa...
G--------------------------------------------------------------------
D--------------------------------------------------------------------
A---------7-5-4-0-4-4----7-5-4-0-2-2---5-4-2-4-5-5--5---5---5--------
E--5-5--5-------------5--------------5----------------5---5----------


quando você for embora...
C#  B

que a alma precisa ter...
G---------------------------------------------------
D------2---2---2---2---2-------4---4---4---4---4----
A--4-4---4---4---4---4---3-2-2---2---2---2---2---3--
E---------------------------------------------------

PRÉ REFRÃO(estar com você, na virada do sol)
C# B (repete várias vezes)
D

REFRÃO

estar com você, na virada do sol...(solinho)
G-------------------------------------------------------------------------
D----------14´16-14----14-16-14-------------12´14-12-------12-------------
A--5/16-16----------16----------16-15-14-14----------12´14----12´14-15-16-
E-------------------------------------------------------------------------

G--------------------------------------------------------------------
D----14´16-14-------14----------------12´14-12-----------------------
A-16----------14´16----16-16-15-14-14--------------------------------
E--------------------------------------------------------------------

pré-refrão(tá na vida, na transformação)
C#  B (vai repetindo)
D

REFRÃO NOVAMENTE ATÉ TERMINAR.
00:00 / 00:00
Otros videos de esta canción
Repetir
Otros videos de esta canción
Composición de Natiruts
Colaboración y revisión:
  • Marcelo Barce
517 vistas

0 comentarios

Ver todos los comentarios

¿Lograste tocar?

7 Tocaron 2 Aún no

¡Graba un video tocando Liberdade Pra Dentro da Cabeça y envíanoslo!

00:00 / 00:00
OK