Cifra Club

Me Namora (part. Edu Ribeiro)

Natiruts

Tab de bajo: Principal
Início
G|---------------------------------------------------|
D|--------------------10-10------------10-10--10\----|
A|------10-10----9-10------------10-10---------------|
E|-9-10---------------------9-10---------------------|

Versos
G|---------------------------------------------------------------|
D|--------------------------------10-10-10------10-10-10------10-|
A|-10-10-10------10-10-10------10----------9-10----------9-10----|
E|----------9-10----------9-10-----------------------------------|
00:00 / 00:00
Otros videos de esta canción
Repetir
Otros videos de esta canción
Composición de Edu Ribeiro
Colaboración y revisión:
  • Walter Brow
186 exhibiciones
00:00 / 00:00
OK