Cifra Club

Meu Reggae É Roots

Natiruts

Tablatura: Principal (guitarra)
Tom: F#
[Intro] F#  G#m  C#
        F#  G#m  C#

     F#                        G#m      C#
E|---------------------------------------------------------|
B|----14b16r14-11-------------------------14h16-14h16-14~--|
G|-11----------------13-11---------------------------------|
D|--------------------------13----13-15~-------------------|
A|---------------------------------------------------------|
E|---------------------------------------------------------|

     F#                        G#m      C#
E|---------------------------------------------------------|
B|----14b16r14-11--11--------------------------------------|
G|-11-----------------13-11-13----11-10~-------------------|
D|---------------------------------------------------------|
A|---------------------------------------------------------|
E|---------------------------------------------------------|

F#                        G#m              C#
    Meu reggae é "roots",     palavras também
D#m                           C#
    Mas o meu coração é brasileiro
B7M                               A#m
    Deixa eu aprender o que é o amor

Por mais difícil que isso seja
B7M                          A#m
    Deixa que a chuva vem lavar
           D#7
A mente de alguém que deseja
  G#m
Sair cantando por aí
    C#
Tentando sempre imaginar
    A#m
Frases estranhas para dizer
           D#7
Mensagens simples de entender
    G#m
Cantando eu mando um alô
   C#
Para você que acreditou
     A#m                         D#7
Que podia ser mais feliz vendo o outro ser feliz
     G#m                        C#            F#  G#m  C#  F#
E abrir seu coração e o seu sorriso todo para ela

( F# )

[Solo] F#  G#m  C#
       F#  G#m  C#
       F#  G#m  C#
       F#  G#m  C#

    F#                                                 G#m
E|----------------------------------11-13b14r13-11-------14-|
B|----14b16r14-14b16r14-14b16r14-14----------------14-14b16-|
G|-11-------------------------------------------------------|
D|----------------------------------------------------------|
A|----------------------------------------------------------|
E|----------------------------------------------------------|

            C#                   F#
E|------------------------11----------------11-11-----11----|
B|-14b16---14-11----11-14-------------------11-11--11----11-|
G|---------------13----------13/15-13-11--------------------|
D|----------------------------------------------------------|
A|----------------------------------------------------------|
E|----------------------------------------------------------|

    G#m                  C#                      F#
E|-14-14----14----14----14----11-13b14r13-11----------16----|
B|-14-14-14----14----14----14----------------14-14b16-------|
G|----------------------------------------------------------|
D|----------------------------------------------------------|
A|----------------------------------------------------------|
E|----------------------------------------------------------|

                                  G#m
E|----------16-18-16-14---------------------11--------------|
B|-14b16----------------14h16-14-11---14-15-------11-12-14--|
G|---------------------------------------------15-----------|
D|----------------------------------------------------------|
A|----------------------------------------------------------|
E|----------------------------------------------------------|

     C#               F#
E|----------------------------------------------------------|
B|-14-11----11-14------------------------------11----11-14--|
G|-------13-------13/15-13-11-----11-13--11-13----13--------|
D|-----------------------------13---------------------------|
A|----------------------------------------------------------|
E|----------------------------------------------------------|

                        G#m                   C#
E|---------11-----11---14/16-14---12/14-12-----11-14--------|
B|--11-14------14------14/16-14---12/14-12--14--------------|
G|----------------------------------------------------------|
D|----------------------------------------------------------|
A|----------------------------------------------------------|
E|----------------------------------------------------------|


E|--16b18-16-14~--------------------------------------------|
B|----------------------------------------------------------|
G|----------------------------------------------------------|
D|----------------------------------------------------------|
A|----------------------------------------------------------|
E|----------------------------------------------------------|

F#                        G#m              C#
    Meu reggae é "roots",     palavras também
D#m                           C#
    Mas o meu coração é brasileiro
B7M                               A#m
    Deixa eu aprender o que é o amor

Por mais difícil que isso seja
B7M                          A#m
    Deixa que a chuva vem lavar
           D#7
A mente de alguém que deseja
  G#m
Sair cantando por aí
    C#
Tentando sempre imaginar
    A#m
Frases estranhas para dizer
           D#7
Mensagens simples de entender
    G#m
Cantando eu mando um alô
   C#
Para você que acreditou
     A#m                         D#7
Que podia ser mais feliz vendo o outro ser feliz
     G#m                        C#            F#  G#m  C#  F#
E abrir seu coração e o seu sorriso todo para ela

[Final] F#  G#m  C#
        F#  G#m  C#

     F#                        G#m      C#
E|---------------------------------------------------------|
B|----14b16r14-11-------------------------14h16-14h16-14~--|
G|-11----------------13-11---------------------------------|
D|--------------------------13----13-15~-------------------|
A|---------------------------------------------------------|
E|---------------------------------------------------------|

     F#                        G#m      C#      F#
E|---------------------------------------------------------|
B|----14b16r14-11--11--------------------------------------|
G|-11-----------------13-11-13----11-10~-------------------|
D|---------------------------------------------------------|
A|---------------------------------------------------------|
E|---------------------------------------------------------|
reproducciones 5.983
Acordes para:

    0 comentarios

    mostrar más comentarios

    ¿Conseguiste tocar?

    30 tocaron 2 aún no

    ¡Graba un vídeo tocando Meu Reggae É Roots y envianoslo!

    00:00 / 00:00
    outros vídeos desta música
    repetir qualidade Automático
    Outros vídeos desta música
    00:00 / 00:00
    Automático
    OK