Cifra Club

Meu Reggae É Roots

Natiruts

Tab de bajo: Principal
(intro e solo)
G---------------------------------------------------------------------
D----4---4---4-666--6----------3-444-444-44—5-666--6----------3-444---
A----------------------444-4-6------------------------444-4-6---------
E--------------------------------------------------------------------

-------------------------------------------------16--------------
444-44—5-666--6-------------------------------------------------------16-----------------
------------------------444-456----16-16/--16-16/--16-----14--------16----14----
--------------------------------------------------------------------------------------------------

Deixa eu aprender o que é o amor...
G--------------------------------------------------------------------
D--------------------------888-8-------------------------------------
A------------888-8--666-6--------------999-9-------999-9-------888-8-
E---18/666-6---------------------777-7-------777-7-------666-6-------

---------------------
----------888-8----
--666-6------------
----------------------

Sair cantando por aí....
G----------------------------------------------------6/9-6-----|
D-------------------------------------------------6/9------9---|
A------------------4-4---4-44--4------------6---6--------------|
E--4-42224-44-2-44----444----4-----66-66-6----6----------------|


Cantando eu mando um alô.......
G------------------------------------------------------------------
D-------------------------------------------------------------------
A------------------4-4---4-44--4----------------5-6-6-----6-66---6--
E--4-42224-44-2-44----444----4-----6-64446-66-8-------666-----6—----

---------------------------------------------------------------------
--------------------------------------------------------------------------------------------------------
----------444--4-6--------------------------------444--4-6--------------------------------------
--4-424-------------1-2-222-2-222-222-4-424-------------1-2--222-2-222-222--------

(o resto da música segue todo igual)

(final)
-----------------------------------------
------------3—44/—44/--------------------
--444-4-6--------------------------------
-----------------------------------------
00:00 / 00:00
Otros videos de esta canción
Repetir
Otros videos de esta canción
Composición de Natiruts
Colaboración y revisión:
  • William Dhein
302 exhibiciones
00:00 / 00:00
OK