Cifra Club

Aprenda

Na Positiva

Natiruts

Tab de bajo: Principal
[Intro]

G|-----------------------------------------------------------------------------------------------------------|
D|-----------------------------------------------------------------------------------------------------------|
A|---------5-5-5-5-5-3-3-3-3-3-3-3-3-3-3-3---------5-5-5-5-5-5-3-3-3-3-3-3-3-3-3-3---------------------------|
E|-3-3-3-3---------------------------------3-3-3-3-----------------------------------------------------------|

[Versos]

G|-------------------------2-2-------------------------------------------------------------------------------|
D|-----------------0-0-3-3-----3-3---------------------------------------------------------------------------|  (4x)
A|-----1-1-----1-1-----------------3-3-1-3--3-3-3-1-3--------------------------------------------------------|
E|-3-3-----3-3-----------------------------------------------------------------------------------------------|

[Pré-refrão]

G|-----------------------------------------------------------------------------------------------------------|
D|-----------------------------------------------------------------------------------------------------------|
A|-6-6-6-6-6-6-5-5-5-5-5-5-5-3-3-3-3-3-3-3-3-3-3-3-3-3-6-6-6-6-6-6-5-5-5-5-5-5-3-3-3-3-3-3-------------------|
E|-----------------------------------------------------------------------------------------1-1-1-------------|

[Refrão]

G|-----------------------------------------------------------------------------------------------------------|
D|-----------------------------------------------------------------------------------------------------------|  (4x)
A|-----1----6-6-6-5-5-5-3-3-1-3------------------------------------------------------------------------------|
E|-3-3---3-----------------------1-1-1-----------------------------------------------------------------------|

[Versos]

G|-------------------------2-2-------------------------------------------------------------------------------|
D|-----------------0-0-3-3-----3-3---------------------------------------------------------------------------|  (2x)
A|-----1-1-----1-1-----------------3-3-1-3--3-3-3-1-3--------------------------------------------------------|
E|-3-3-----3-3-----------------------------------------------------------------------------------------------|

[Pré-refrão]

G|-----------------------------------------------------------------------------------------------------------|
D|-----------------------------------------------------------------------------------------------------------|
A|-6-6-6-6-6-6-5-5-5-5-5-5-5-3-3-3-3-3-3-3-3-3-3-3-3-3-6-6-6-6-6-6-5-5-5-5-5-5-3-3-3-3-3-3-------------------|
E|-----------------------------------------------------------------------------------------1-1-1-------------|

[Refrão]

G|-----------------------------------------------------------------------------------------------------------|
D|-----------------------------------------------------------------------------------------------------------|  (4x)
A|-----1----6-6-6-5-5-5-3-3-1-3------------------------------------------------------------------------------|
E|-3-3---3-----------------------1-1-1-----------------------------------------------------------------------|

[Ponte]

Parte 1 de 2
G|-----------------------------------------------------------------------------------------------------------|
D|-----------------------------------------------------------------------------------------------------------|
A|---------------------------8--8-8-8-----7------------------------------------------------------------------|
E|-0--3--5--5-5-5--8--8-8-8------------7---------------------------------------------------------------------|

Parte 2 de 2
G|-----------------------------------------------------------------------------------------------------------|
D|-----------------------------------------------------------10-10---10-10---10-10---10-10-------------------|
A|---7-7---7-7---7-7---7-7---10-10---10-10---10-10---10-10-8-------8-------8-------8-------------7-7-7-------|
E|-5-----5-----5-----5-----8-------8-------8-------8---------------------------------------7-7-7-------------|

[Versos]

G|-------------------------4-4-------------------------------------------------------------------------------|
D|-----------------2-2-5-5-----5-5---------------------------------------------------------------------------|  (4x)
A|-----3-3-----3-3-----------------5-5-3-5--5-5-5-3-5--------------------------------------------------------|
E|-5-5-----5-5-----------------------------------------------------------------------------------------------|

[Refrão]

G|-----------------------------------------------------------------------------------------------------------|
D|-----------------------------------------------------------------------------------------------------------|  (4x)
A|-----3----8-8-8-7-7-7-5-5-3-5------------------------------------------------------------------------------|
E|-5-5---5----------------------3-3-3------------------------------------------------------------------------|

[Final]

G|-----------------------------------------------------------------------------------------------------------|
D|-----------------------------------------------------------------------------------------------------------|
A|-7-5---5---------------------------------------------------------------------------------------------------|
E|-----8---8-5\----------------------------------------------------------------------------------------------|
Compositor Alexandre Carlo
Colaboración y revision:
  • Walter Brow
31 reproducciones

0 comentarios

Mostrar mais comentários

¿Conseguiste tocar?

1 Tocaron 0 Ainda não

Grave um vídeo tocando Na Positiva e mande pra gente!

00:00 / 00:00
outros vídeos desta música
repetir qualidade Automático
Outros vídeos desta música
00:00 / 00:00
Automático
OK