Cifra Club

Não Chore Meu Amor

Natiruts

Cifrado: Principal (guitarra y guitarra eléctrica)
tono: D
Solo De Intro
     F#m                                              Bm
E|-----------------------------------------------------------------------|
B|-------10-----12-12^-10------------10-----12-12^-10-----------10-12^-10|
G|--9-11----11------------------9-11----11------------11~--9-11----------| (2x)
D|-----------------------------------------------------------------------|
A|-----------------------------------------------------------------------|
E|-----------------------------------------------------------------------|

    F#m                                               Bm       C#m
E|------------------------------------------------------------------------------|
B|-------10-----12-12^-10------------10-----12-12^-10---------------------------|
G|--9-11----11------------------9-11----11------------11-11-11-13-13-13---------|
D|------------------------------------------------------------------------------|
A|------------------------------------------------------------------------------|
E|------------------------------------------------------------------------------|

F#m Bm               F#m Bm               F#m Bm               C#m
    Soul revolution,     Soul revolution,     Soul revolution, uuuuuuuu


Bm                      
Não chore meu amor tudo vai melhorar
Bm                              F#m
Não fique tão aflita se algo desandou
Bm                              
Vamos pedir proteção à mãe natureza
        Bm                                      F#m
Para que o brilho do amor possa em nossa vida chegar
        Bm      
E que a força da paz luminosos astrais
     
Estejam sempre perto da gente
Bm                             F#m
Para a tormenta o vento forte levar
Bm
Do universo vem nossa força

E não estamos juntos a toa
G7+                                        C#m7
E traz um "good weed” que é para a gente voar


F#m     Bm                  F#m
        E joga o sorriso no ar
        Bm                  F#m
        E faça toda noite brilhar
        Bm                  F#m
        E joga a tristeza pro ar
Bm      C#m     D
         Uuu..   Uuu..

Solo do refrao
     F#m                                  Bm
E|---------------------------------------------|
B|---------------------------------------------|
G|---14-14-----14-14-----14-16^-16-14----------| (3x)
D|---------16-------16----------------16~~-----|
A|---------------------------------------------|
E|---------------------------------------------|

     F#m                                 Bm       C#m        D
E|-------------------------------------------------------------|
B|-------------------------------------------------------------|
G|---14-14-----14-14-----14-16^-16-14--------------------------|
D|---------16-------16----------------16-16-16-16/18-18-18-16~~|
A|-------------------------------------------------------------|
E|-------------------------------------------------------------|

..nessa parte o baixo faz isso ai..
D|-------------------------------------------|
A|--/9~~--/99-7-77\5~~-----5-----5h7~/9~~----| (4x)
E|---------------------5h7----5h7------------|

(LIRINHA) (D - G)
Eu digo, não chore meu amor 
Porque a lua brilhou no escuro do céu
E o som acalenta teu corpo cansado
E o sonho da gente não morre jamais
Na guerra ou na paz


D|-------------------------------------------|
A|------5h7~/9~~~~------5h7~\5~~~~-----------| (4x)
E|--5h7-------------5h7----------------------|

Aqui resta 
Uma esperança sem fim
Aqui resta 
Um guerreiro de paz
E a lágrima quente numa noite fria
Saaanta liberdade!
Não chore meu amor
É tanta água no teu olho estrelas e luas o mar
Pescadores e Iemanjá


Bm
Quando a terra se fez o chão vida
E a floresta morada do sagrado
Oceano de fogo congelado
Um pedaço de lua, um pedaço de luz
Na noite preta, as mensagens do sol
E
As origens da saudade


Bm
Lá fora muitos homens querem esconder
A verdadeira força que eu posso ter
A
Privando minha mente de evoluir
Assim fica mais fácil de me distrair
Bm
O RAP é a voz, o SAMBA emoção
O ROCK energia o REGGAE elevação
A
E todos vieram do mesmo lugar
E
ÁFRICA


Bm
E foi de lá que veio essa fruta cor
E aqui no Brasil a outras misturou
A
O céu o verde o mar então nasceu você
Eu tento mas confesso não posso esconder
Bm
Quero me banhar nas águas desse mar
Para me fortalecer eu vou me perfumar
A
Com o seu cheiro lindo e o seu amor
E
Mulher menina, beleza de vida
Bm
Mulher menina acredite na vida
Nunca desista acredite na vida
A
Não chore meu amor tudo vai melhorar

Bm              A                  
Uuuuu, Uuuuu, tchuruchu
00:00 / 00:00
Otros videos de esta canción
Repetir
Otros videos de esta canción
Composición de Natiruts
Colaboración y revisión:
972 exhibiciones
    • ½ Tono
    • A
    • Bb
    • B
    • C
    • Db
    • D
    • Eb
    • E
    • F
    • F#
    • G
    • Ab
  • Agregar a la lista
    00:00 / 00:00
    OK