Cifra Club

Naticongo

Natiruts

Tablatura: Principal (guitarra)
Tom: C
[Intro] Am7  Dm7  Am7  Dm7
        Am7  Dm7  Em7
        Am7  Dm7  Am7  Dm7
        Am7  Dm7  Em7  E7
        Am7  Dm7  Am7  Dm7
        Am7  Dm7  Em7  E7

E|------------------------------------------------------|
B|------------------------------------------------------|
G|------------------------------------------------------|
D|------------------------------------------------------|
A|------------5-5----5------------------5-5----5--------|
E|-5--5-8-5-8------8---8-3---5--5-8-5-8------8---8-3--5-|

E|------------------------------------------------------|
B|------------------------------------------------------|
G|------------------------------------------------------|
D|------------------------------5---5--7-7----5--7------|
A|---------5-5----5---5----7-7----7----------------7----|
E|-5-8-5-8------8---8-----------------------------------|

 Am7       Dm7             Am7      Dm7
Tinha a coragem e a calma de um Rei
Am7        Dm7       Am7        Dm7
Os mais ferozes mares enfrentou
 Am7     Dm7         Am7      Dm7
Seus inimigos não puderam ver
 Am7      Dm7          Em7
Segredos da sua força contra a dor, e
 Am7        Dm7         Am7       Dm7
Seus olhos liam além do amanhecer
 Am7    Dm7            Am7       Dm7
Suas palavras transformavam leis
 Am7      Dm7          Am7     Dm7
Todos queriam ser como ele foi
 Am7       Dm7           Em7
Ninguém sabia que era infeliz

  F                     G
Queria saber (queria saber)

Que faltava então ?
 F                              G
Não queria viver (não queria viver)

Essa dor no coração
 F
Pois até um rei
 G7                          E              E7
Despeja lágrimas por não ter o seu grande amor

          Am7             Dm7
Queria saber se é bom ou ruim
          Am7             Dm7
Ter uma flor tão linda assim
               Am7               Dm7
Com o azul do céu e o brilho do mar
            Am7          Dm7
E olhos de mel pra iluminar

( G  F )

 G
Se ajoelhou como servo pela primeira vez
               F
Dizendo já sofrer demais
 G
Saber sobre os céus e a floresta não lhe foi em vão
                 F
Sem eles, não teria a paz
       E       E7
Pra acreditar

          Am7             Dm7
Queria saber se é bom ou ruim
          Am7            Dm7
Ter uma flor tão linda assim
               Am7               Dm7
Com o azul do céu e o brilho do mar
            Am7          Dm7
E olhos de mel pra iluminar ôôô

( Am  Dm  Am  Dm )
( Am  Dm  Em )
( Am  Dm  Am  Dm )
( Am  Dm  Em )
reproducciones 1.436
Acordes para:
    Composição: Natiruts Colaboración y revision:

    0 comentarios

    mostrar más comentarios

    ¿Conseguiste tocar?

    40 tocaron 0 aún no

    ¡Graba un vídeo tocando Naticongo y envianoslo!

    00:00 / 00:00
    outros vídeos desta música
    repetir qualidade Automático
    Outros vídeos desta música
    00:00 / 00:00
    Automático
    OK