Cifra Club

Naticongo

Natiruts

Tab de bajo: Principal
Intro 2x:
G|-----------------------------|
D|-----------------------------|   (2x)
A|------3-3---5-5--3-5-5-------|
E|--5-5-----5------------3-----|

G|---------------------------------------------|
D|----------------------55-77-7-5--------------|
A|------33-5-5-35-35-7-7--7-------7------------|
E|--5-5---5------------------------------------|    

Verso:
G|---------------------------------------|
D|---------------------------------------|   (3x)
A|-----33---5-5--3-55-----33--5-(pausa)--|
E|--5-5---5----------3-5-5---5-----------|

G|---------------------------------------------|
D|----------------------55-77-7-5--------------|
A|------33-5-5-35-35-7-7--7-------7------------|
E|--5-5---5------------------------------------| 

Pré-Refrão:
G|---------------------------------------|
D|---------------------------------------|   (2x)
A|----333-----3------555-----5-----------|
E|--11---1-1-1--1--33---3-3-3-3----------|

G|-----------------------------------|
D|-----------------------------------|
A|----333-----3-------1/7------------|
E|--11---1-1-1--1---------0-0-0-0-0--|

Refrão.(2x)|
G|------------------------------------------|
D|----------------------5-5-----------------|
A|-----757-----75-5-58-8---8-5--------------|
E|--5-5---5-5-5--8--------------------------|

G|-----------------------------------------|
D|-----------------------------------------|
A|-----757-----75-555-333-222--------------|
E|--5-5---5-5-5--8------------3-4----------|

Pós-Refrão:
G|-----------------------------------------------------|
D|-----------------------------------------------------|
A|-----------------------------------------------------|
E|--11-1-1-1-11-11-11-1-111-3-33-3-333-3-33-33-333-----|

Finalização 2x:
G|---------------------------------------| 
D|---------------------------------------|
A|-----33---5-5--3-55-----33--5----------|
E|--5-5---5----------3-5-5---5-----------|

G|---------------------------------------------|
D|---------------------------------------------|
A|------33-5-5-35-35-7-------------------------|
E|--5-5---5------------0-0-0-0-----------------|
Composición de Natiruts
Colaboración y revisión:
  • Raimundo Dias
191 vistas

0 comentarios

Ver todos los comentarios

¿Lograste tocar?

3 Tocaron 0 Aún no

¡Graba un video tocando Naticongo y envíanoslo!

00:00 / 00:00
Outros vídeos desta música
Repetir Calidad Automático
Outros vídeos desta música
00:00 / 00:00
Automático
OK