Cifra Club

Natiruts Reggae Power

Natiruts

Tab de bajo: Versão 2
Intro:
G|--------------------------------------------------|
D|--------------------------------------------------|
A|---9-9-9----------------7-7-7--9-9-9--------------|
E|----------9-9-9--7-7-7----------------9-9-9--7\---|

(0:29)
G|-------------------------------------------------|
D|-------------------------------------------------|
A|---7-8-9-----------------------------7---7-8-9---|
E|-----------------9---------7-----------7---------|

(3x)
G|-----------------------------------|
D|-----------------------------------|
A|-----------------------7---7-8-9---|
E|---9---------7-----------7---------|

(1:08)
G|---------------------------------------------------------|
D|--------------11-11-11-11--------------------------------|
A|---7-8-9-------------------------------------7---7-8-9---|
E|--------------------------9----------7---------7---------|

(3x)
G|-----------------------------------------------|
D|---11-11-11-11---------------------------------|
A|-----------------------------------7---7-8-9---|
E|---------------9---------7-----------7---------|

(Refrão) (3x)
G|-----------------------------------------------|
D|---11-11-11-11---------------------------------|
A|-----------------------------------7---7-8-9---|
E|---------------9---------7-----------7---------|

G|---------------------------------------|
D|---11-11-11-11-------------------------|
A|-----------------------------------7---|
E|---------------9---------7-------------|

8x
G|----------------------------------| (Nessa parte, fuzile na mão direita
D|----------------------------------| e desça lentamente a escala com um slide,
A|----------------------------------| até a casa 5 da primeira corda,
E|---17\---------\5/----------/17---| depois suba com outro slide rapidamente e repita)

G|--------------------------------------------------|
D|--------------------------------------------------|
A|---9-9-9----------------7-7-7--9-9-9--------------|
E|----------9-9-9--7-7-7----------------9-9-9--7\---|

G|--------------------------------------------------------|
D|--------------11-11-11-11-------------------------------|
A|---7-8-9------------------------------------7---7-8-9---|
E|--------------------------9---------7---------7---------|

G|-----------------------------------------------|
D|---11-11-11-11---------------------------------|
A|-----------------------------------7---7-8-9---|
E|---------------9---------7-----------7---------|

G|-----------------------------------|
D|-----------------------------------|
A|-----------------------7---7-8-9---|
E|---9---------7-----------7---------|

G|-----------------------------------|
D|-----------------------------------|
A|-----------------------------------|
E|---9---------7---------7\----------|

G|------------------------------------------------------|
D|----------11-11-11-11---------------------------------|
A|---9--------------------------------------7---7-8-9---|
E|----------------------9---------7-----------7---------|

(2x)
G|-----------------------------------------------|
D|---11-11-11-11---------------------------------|
A|-----------------------------------7---7-8-9---|
E|---------------9---------7-----------7---------|

G|----------------------------------------------|
D|---11-11-11-11--------------------------------|
A|-----------------------------------7---7-8----|
E|---------------9---------7-----------7--------|

G|------------------------------------------------------------|
D|------------------------------------------------------------|
A|---9-9-9----------------7-7-7--9-9-9----------------7-7-7---|
E|----------9-9-9--7-7-7----------------9-9-9--7-7-7----------|

G|--------------------------------------------------------|
D|--------------------------------------------------------|
A|---9-9-9----------------7-7-7--9-9-9----------------7---|
E|----------9-9-9--7-7-7----------------9-9-9--7-7-7------|
00:00 / 00:00
Otros videos de esta canción
Repetir
Otros videos de esta canción
Composición de Natiruts
Colaboración y revisión:
  • Lucas Costa
257 exhibiciones
00:00 / 00:00
OK