Cifra Club

Natiruts Reggae Power

Natiruts

Tab de bajo: Versão 5
Intro:
G|----------------------------------------------------|
D|----------------------------------------------------|
A|--9-9-9--4-4-4--2-2-2--7-7-7--9-9-9--4-4-4----------|
E|--------------------------------------------7/------|

G|--------|-------------------------------------------|
D|--------|-------------------------------------------|
A|-7-8-9--|--4~ ---2~ ---7-4-7-8-9~ ------------------|
E|--------|-------------------------------------------|

(Base e Refrão)
G|----------------------------------------------------|
D|----------------------------------------------------|
A|-7-8-9---------------4~ ----2~ ----7-4-7-8-9~ ------|
E|--------11-11-11-11---------------------------------|

(Ponte) 
G|----------------------------------------------------|
D|----------------------------------------------------|
A|-11/-----------------------\11----------------------|
E|----------------------------------------------------|

(Base após a Ponte) 
G|----------------------------------------------------|
D|----------------------------------------------------|
A|--9-9-9--4-4-4--2-2-2--7-7-7--9-9-9--4-4-4----------|
E|--------------------------------------------7/------|

G|----------------------------------------------------|
D|----------------------------------------------------|
A|-7-8-9---------------4~ ----2~ ----7-4-7-8-9~ ------|
E|--------11-11-11-11---------------------------------|

G|--------|-------------------------------------------|
D|--------|-------------------------------------------|
A|-7-8-9--|--4~ ---2~ ---7-4-7-8-9~ ------------------|
E|--------|-------------------------------------------|

(Base e Refrão)
G|----------------------------------------------------|
D|----------------------------------------------------|
A|-7-8-9---------------4~ ----2~ ----7-4-7-8-9~ ------|
E|--------11-11-11-11---------------------------------|

G|----------------------------------------------------|
D|----------------------------------------------------|
A|--9-9-9--4-4-4--2-2-2--7-7-7--9-9-9--4-4-4----------|
E|--------------------------------------------7/------|
00:00 / 00:00
Otros videos de esta canción
Repetir
Otros videos de esta canción
Composición de Natiruts
Colaboración y revisión:
  • Dj Netoloko
8 exhibiciones
00:00 / 00:00
OK