Cifra Club

O Carcará e a Rosa

Natiruts

Cifrado: Versão 3 (guitarra y guitarra eléctrica)
tono: G
Bb           C
Olhe, vá em frente, não se esqueça
Bd         C
Liberdade dentro da cabeça
Bb          C
E a cabeça fora do que há
   Dm           F#º
De mal pra você

E|-----------------------------|------------|-----|
A|-----------------------------|------------|-----|
D|-----------------------------|------------|-----|
G|-----------------------------|------------|-----|   (4x)
B|-----------------------------|------------|--3--|
E|-3--3--55--3---3-5-3-5-3-5-3-|-1--1--3--1-|----1|

E|----------------------------------|--------------------------------|
A|----------------------------------|--------------------------------|
D|----------------------------------|--------------------------------|
G|----------------------------------|--------------------------------|
B|-3----------------------------3---|-3------------------------------|
E|---1-3--1-3--1-3-5--5-3-1-3-1---1-|----1-3--1-3--1-3-5--5-3-1-3-1--|

Gm7                   F
Ouvindo a música, sentindo o que ela me traz, uuuu...
Gm7                              F
Subo até as estrelas para entender como é que se faz, faz, faz
Gm7                             F
Para esquecer a dor que os meus olhos não conseguem ver
Gm7                            F
Destrua o meu coração que estará destruindo você, uuu..
Gm7                         F
Você é filho da terra, dadiva dada por seu Deus, uuu...
Gm7                           F
A fome dos meus filhos não será a riqueza dos seus, dos seus
Gm7                       F
Ô chama que destrói,  corrói o que é belo, tudo que faz bem
Gm7                                 F
Controle suas palavras, minha liberdade não pertence a ninguém
Dm7     C       Bb7M            Am7     Gm7     C7(9)
Mas o amor pode chegar, ilumi....nar e colorir ...
Dm7                       Gm7
Quando um coração está cansado de ver, uuu...
Dm7                            Gm7
As lágrimas da rosa ao ver o espinho morrer
Am7                  Gm7
Mas, o carcará foi dizer à rosa
Am7                          Gm7                F#º
Que a luz dos cristais vem da lua nova e do girassol
Bb           C
Olhe vá em frente não se esqueça
Bb         C
Liberdade dentro da cabeça
Bb          C                Dm7
E a cabeça fora do que há de mal para você
Bb           C
Olhe vá em frente não se esqueça
Bb      C
Liberdade dentro da cabeça
Bb          C                Dm7                F#º
E a cabeça fora do que há de malllllll          Oh Oh

E|-----------------------------|------------|-----|
A|-----------------------------|------------|-----|
D|-----------------------------|------------|-----|
G|-----------------------------|------------|-----|   (4x)
B|-----------------------------|------------|--3--|
E|-3--3--55--3---3-5-3-5-3-5-3-|-1--1--3--1-|----1|
00:00 / 00:00
Otros videos de esta canción
Repetir
Otros videos de esta canción
Composición de Natiruts
Colaboración y revisión:
  • Tiago Garcia
  • Cadjah Roots
  • Gustavo Tufaile
233 exhibiciones
    • ½ Tono
    • A
    • Bb
    • B
    • C
    • Db
    • D
    • Eb
    • E
    • F
    • F#
    • G
    • Ab
  • Agregar a la lista
    00:00 / 00:00
    OK