Cifra Club

O Carcará e a Rosa

Natiruts

Bass tab: Principal
INTRO
Bb C


INTRO 2 COM TRUMPETE(repete várias vezes)
G---------------------------------------------------------------
D---------------------------------------------------------------
A----------5-5--------5---5---5----------3-3----------1-3-1-----
E--3-1-3-3-----3-3--3---3---3---0-1-1--1-----1-1--1-3-------3-1-

G---------------------------------------------------------------
D---------------------------------------------------------------
A-----5-5--------5---5---5-------3-3----------1-3-1-------------
E-3-3-----3-3--3---3---3---0-1-1-----1-1--1-3-------3-1---------

...mas o amor pode chegar...

G---------------------------------------------------------------
D-----------------3-3-3-----3-------7-5-7-----------------------
A--5-3-1--1-----1-------1-1---0----------------------------3----
E-----------1-1-----------------5-5-------3-5-3-5--3-3-3-5------

...quando um coração...

G---------------------------------------------------------------
D---------------------------------------------------------------
A--5-5-----5-5--5-5-5-----5-------------------------------------
E------5-5------------5-5---5--3-3-3-1-3--3-3-3-1-1-3-3---------

...mas o carcará...

G---------------------------------------------------------------
D-------7-5-7-7---7-5-7--5-----------5-3-5-5---5-3-5-3----------
A--------------------------7---------------------------5--------
E-5-5-5---------5------------5-3-3-3---------3------------------

...e do girassol...
Bb

...olhe vá em frente...

2x   Bb C (4X) D
     F#

REPETE INTRO 2
00:00 / 00:00
Other videos of this song
Repeat
Other videos of this song
Composed by Natiruts
Collaboration and Review:
  • Marcelo Barce
133 views
00:00 / 00:00
OK