Cifra Club

Palmares 1999

Natiruts

Tab de bajo: Principal
   
Pré-Intro:
G:|---------------------------------------------------------
D:|---------------------------------------------------------
A:|-5-5--4-4--2---2-4-5-5-4-4-2---5-5-4-4-2--2-4-5-5-4-4----
E:|------------------------------------------------------0--

Intro (junto com o solo de guitarra com wah-wah):
G:|---------------------------------------------------------
D:|--------------------------------------2-4----------------
A:|-----------------0-0-0-0---2-0-2--2-0--------------------
E:|-2-0-2--2-0-2-0---------------------------0-0-0-0--------

G:|---------------------------------------------------------
D:|--------------------------------------2-4----------------
A:|-----------------0-0-0-0---2-0-2--2-0--------------------
E:|-2-0-2--2-0-2-0---------------------------0-0-1----------

Verso (parte principal da música):
G:|----------2-------------------4--------------------------
D:|--------2-------2---4-----2-4----------------------------
A:|----2-4-------4---4-----2--------------------------------
E:|--2-------------------------------0-0-1------------------
  "A cultura e o foclore são meus / mas os livros foi você 
  quem escreveu"

Pré-refrão:
  "E sim anjinhos pra dizer que o lado mau é o candom..."
G:|---------------------------------------------------------
D:|---------------------------------------------------------
A:|-------------5-5-5-4-4-4-2-2---2---2---------------------
E:|-2-2-0-2-0-2-----------------2---2---0--1----------------
  "...blé, Ô iô iô iô iê iê"

Refrão ("A energia vem do coração"):
G:|----------2---------------------4------------------------
D:|--------2-------------------2-4--------------------------
A:|----2-4------5-5-5-4-4-4--2------------------------------
E:|--2--------------------------------0-0-1-----------------
  "A energia vem do coração / e a alma não se entrega não"

G:|----------2-------------------4--------------------------
D:|--------2-------2---4-----2-4----------------------------
A:|----2-4-------4---4-----2--------------------------------
E:|--2-------------------------------0-0-1------------------
  "A energia vem do coração / e a alma não se entrega não"

Outro 1:
G:|---------------------------------------------------------
D:|---------------------------------------------------------
A:|-5-5--5-----5-5--4-4--4-----4-4--2--2---0-2-0-2-0-2-2-4--
E:|--------5-5-------------4-4-----------2------------------
  "Por isso corres pelo mundo sem jamais se encontrar"

Outro 2:
G:|---------------------------------------------------------
D:|---------------------------------------------------------
A:|-5-5--5-----5-5--4-4--4-----4-4--2-2--2---2-2------------
E:|--------5-5-------------4-4-------------2------0---------
  "Que apesar de ter criado o toque do agogô / Fica de fora 
  dos cordões do carnaval de Salvador"

Finalização:
G:|----------2-------------------4--------------------------
D:|--------2-----------------2-4----------------------------
A:|----2-4-----------------2--------------------------------
E:|--2------------------------------------------------------


--

  [Pré-Intro]
  [Intro]
  [Verso]
A cultura e o folclore são meus
Mas os livros foi você quem escreveu
Quem garante que Palmares se entregou
Quem garante que Zumbi você matou
Perseguidos sem direitos nem escolas
Como podiam registrar as suas glórias
Nossa memória foi contada por você
E é julgada verdadeira como a própria lei
Por isso temos registrados em toda história
Uma mísera parte de nossas vitórias
É por isso que não temos sopa na colher
E sim anjinhos pra dizer que o lado mau é o candomblé
  [Pré-Refrão]

  [Refrão]
A energia vem do coração    |
E a alma não se entrega não | 2x
A energia vem do coração    |
E a alma não se entrega não |

  [Intro]

  [Verso]
A influência dos homens bons deixou a todos ver
Que a omissão total ou não
Deixa os seus valores longe de você
Então despreza a flor zulu
Sonha em ser pop na zona sul
Por favor não entenda assim
Procure o seu valor ou será o seu fim
  [Outro 1]
Por isso corres pelo mundo sem jamais se encontrar
Procura as vias do passado no espelho mas não vê
  [Outro 2]
Que apesar de ter criado o toque do agogô
Fica de fora dos cordões do carnaval de Salvador
  [Pré-Refrão]

  [Refrão]
A energia vem do coração    |
E a alma não se entrega não | 2x
A energia vem do coração    |
E a alma não se entrega não |

  [Intro]
  [Finalização]

 


_______________________________________________________
Contribuição: César(crazydog_2002@zipmail.com.br)
00:00 / 00:00
Otros videos de esta canción
Repetir
Otros videos de esta canción
Composición de Natiruts
56 exhibiciones
00:00 / 00:00
OK