Cifra Club

Pedras Escondidas

Natiruts

Tablatura: Principal (guitarra)
Tom: Bb
[Intro] Bb7M  Eb7M  Bb7M  Eb7M

E|----------------------------------------------------|
B|-------10-------10-------10-------10-------10-------|
G|-10-12----10-12----10-12----10-12----10-12----10-12-|
D|----------------------------------------------------|
A|----------------------------------------------------|
E|----------------------------------------------------|

E|----------------------------13-10-------------------|
B|-10-------10-------10----10-------------------------|
G|----10-12----10-12----12----------------------------|
D|----------------------------------------------------|
A|----------------------------------------------------|
E|----------------------------------------------------|

Bb7M
Espero você detrás daquele monte
    Eb7M
De lá dá até pra ver o dia indo embora
 Bb7M
Dá até pra deitar olhando para o céu
   Eb7M
E ver ele girar feito nossas vidas
 Bb7M
Dá também pra ver os falsos sentimentos
     Eb7M
De quem só quer você se você tiver
Bb7M
Algo além do seu amor

Que possa oferecer
    Eb7M
Paraísos de ilusão e de fantasia

Gm7            Dm7             Cm7
     Segredos são pedras escondidas
                    Gm7
Distantes da ambição
Gm7            Dm7             Cm7
     Segredos são pedras escondidas
                    Gm7
Distantes da ambição
Gm7            Dm7             Cm7
     Segredos são pedras escondidas

( Bb7M  Eb7M )
( Bb7M  Eb7M )

E|--------------------------------------------------------|
B|-10-11-10-11-10-----------10-11-10-11-10----------------|
G|----------------12----10-----------------12----12-10----|
D|-------------------12-----------------------12-------12-|
A|--------------------------------------------------------|
E|--------------------------------------------------------|

E|--------------------------------------------------------|
B|-10-11-10-11-10-----------10-11-10-11-10----------------|
G|----------------12----10-----------------12----12-10----|
D|-------------------12-----------------------12-------12-|
A|--------------------------------------------------------|
E|--------------------------------------------------------|

Bb7M
  Tempo abriu, tempo abriu
Eb7M
  Chuva forte foi embora
Bb7M
  Quem não viu chegar pode estar
Eb7M
  Preso pela solidão

( Bb7M Eb7M )
( Bb7M Eb7M )

Bb7M
Espero você detrás daquele monte
    Eb7M
De lá dá até pra ver o dia indo embora
 Bb7M
Dá até pra deitar olhando para o céu
   Eb7M
E ver ele girar feito nossas vidas
 Bb7M
Dá também pra ver os falsos sentimentos
     Eb7M
De quem só quer você se você tiver
Bb7M
Algo além do seu amor

Que possa oferecer
    Eb7M
Paraísos de ilusão e de fantasia

Gm7            Dm7             Cm7
     Segredos são pedras escondidas
                    Gm7
Distantes da ambição
Gm7            Dm7             Cm7
     Segredos são pedras escondidas
                    Gm7
Distantes da ambição
Gm7            Dm7             Cm7
     Segredos são pedras escondidas

( Bb7M Eb7M )
( Bb7M Eb7M )

E|--------------------------------------------------------|
B|-10-11-10-11-10-----------10-11-10-11-10----------------|
G|----------------12----10-----------------12----12-10----|
D|-------------------12-----------------------12-------14-|
A|--------------------------------------------------------|
E|--------------------------------------------------------|

E|--------------------------------------------------------|
B|-10-11-10-11-10-----------10-11-10-11-10----------------|
G|----------------12----10-----------------12----12-10----|
D|-------------------12-----------------------12-------14-|
A|--------------------------------------------------------|
E|--------------------------------------------------------|

[Final] Bb7M  Eb7M
        Bb7M  Eb7M
reproducciones 1.750
Acordes para:
    Composição: Natiruts Colaboración y revision:

    0 comentarios

    mostrar más comentarios

    ¿Conseguiste tocar?

    11 tocaron 4 aún no

    ¡Graba un vídeo tocando Pedras Escondidas y envianoslo!

    00:00 / 00:00
    outros vídeos desta música
    repetir qualidade Automático
    Outros vídeos desta música
    00:00 / 00:00
    Automático
    OK