Cifra Club

Presente De Um Beija-Flor

Natiruts

Tab de bajo: Correta-original
Intro:
G|-------------------------------------------------------------------------------
D|--------------4--3-------------------------------------------------------------
A|-----------6-----------4------6--6---4--6--------------------------------------
E|--4--4--7-------------6---6----------------------------------------------------

G|-------------------------------------------------------------------------------
D|-----------------4--3-----2h3-----------------------------------------------------
A|-----------4--6--------4------4--4------------4--6-------4--6--4-------------
E|--4--4--7-----------------------------6--4--6---------4--6----------6--6-------

G|--------------------------2h3-----------------------------------------------------
D|-----------------4--3-----------------4-4-4-3-3-3------------------------------
A|-----------4--6--------4------4--4-----------------6--------4---6---4--------
E|--4--4--7---------------------------------------------4---6------------6-6---4------

Riff 1:
G|-------------------------------------------------------------------------------
D|-------------------------------------------------------------------------------
A|------------4--4--4--4--4--4-----4-------------4--6--------4--6--4-------
E|--4--4--2--4---------------------4-4----4--6------4--6--------4--6-------6--6--4
                                                                          
Riff 2:
G|-------------------------------------------------------------------------------
D|--------------4--3-------------------------------------------------------------
A|-----------7--------------4------6--6---4--6--6---4--4h6--4--------------------
E|--4--4--7--------------6-----6--------------------------------6-6---4----------
                                                                               
(Riff 1)
O Beija-flor que trouxe meu amor
Voou e foi embora
Olha só como é lindo meu amor
Estou feliz agora

(Riff 2)
Veja só a névoa branca que sai de trás do bambuzal
Será que ela me faz bem ou será que me faz mal
Eu vou surfar no cêu azul de nuvens doidas
Da capital do meu país
Pra ver se esqueço da pobreza e violência
Que deixa o meu povo infeliz
Composición de Natiruts
Colaboración y revisión:
  • jailson nascimento
68 vistas

0 comentarios

Ver todos los comentarios

¿Lograste tocar?

0 Tocaron 0 Aún no

¡Graba un video tocando Presente De Um Beija-Flor y envíanoslo!

00:00 / 00:00
Outros vídeos desta música
Repetir Calidad Automático
Outros vídeos desta música
00:00 / 00:00
Automático
OK