Cifra Club

Reggae Music

Natiruts

Cifrado: Versão 2 (guitarra y guitarra eléctrica)
tono: C
Solo: 
e|---------------------------------------
B|---------------------5-----------------
G|---------------5-7----7-5------------
D|----------5-7--------------7-5-------
A|----5/7-------------------------------
E|---------------------------------------

e|---------------------------------------
B|---------------------5----------6------
G|---------------5-7----7-5--7---------
D|----------5-7------------------------
A|----5/7-------------------------------
E|---------------------------------------

Dm7 - Am7 - Gm7 - C 

Quando for vê se não demora
Você é luz do meu viver
Deixa o Sol entrar pela casa
Trazendo luz para o nosso amor
Você é flor de laranjeira
Traz a chuva que é pra benzer
De manhã o orvalho chega
Trazendo Sol para o nosso amor
Brilhando luz seja aonde for
[Solo]
Reggae Music
Gm7
Frutas e doces sorrisos
Am7                          Gm7 Am7
E beijos, o mar, e você e o farol
Gm7
Um brinde e champanhe 
                   Am7
Pra quem foi que inventou...


Solo do início .
00:00 / 00:00
Otros videos de esta canción
Repetir
Otros videos de esta canción
Composición de Alexandre
Colaboración y revisión:
  • Viviane Santos
1 exhibiciones
    • ½ Tono
    • A
    • Bb
    • B
    • C
    • Db
    • D
    • Eb
    • E
    • F
    • F#
    • G
    • Ab
  • Agregar a la lista
    00:00 / 00:00
    OK