Cifra Club

Sol do Meu Amanhecer

Natiruts

Tab de bajo: Principal
00:48
Gb|-----------------------------------------------------------------------------------------------------------|
Db|-----------------------------------------------------------------------------------------------------------|
Ab|-----------------------------------------------------------------------------------------------------------|
Eb|-5~----4~--12\---------------------------------------------------------------------------------------------|

00:55
Gb|-----------------------------------------------------------------------------------------------------------|
Db|-----------------------------------------------------------------------------------------------------------|
Ab|-4--4-4-4-4-6--6-6-6-6--------------------------4--4-4-4-4-6--6-6-6-6--------------------------------------|
Eb|-----------------------4--4-4-4-4-4-4--4-4-4-4------------------------4--4-4-4-4-4-4--4-4-4-4--------------|

01:10
Gb|-----------------------------------------------------------------------------------------------------------|
Db|-----------------------------------------------------------------------------------------------------------|
Ab|-4--4-4-4-4----6--6-6-6-6----7--7-7-7-7--------------------------------------------------------------------|
Eb|------------3-------------5-------------6--4----4-4-4-4-4-4--4-4-4-4---------------------------------------|

01:24
Gb|-----------------------------------------------------------------------------------------------------------|
Db|-----------------------------------------------------------------------------------------------------------|
Ab|-4--4-4-4-4----6--6-6-6-6----7--7-7-7-7--------------------------------------------------------------------|
Eb|------------3-------------5-------------6----4--4-4-4-4--6-6-6-6-4--4-4-4-4--6-6-6--4~---------------------|

01:46
Gb|-----------------------------------------------------------------------------------------------------------| 4x
Db|-----------------4---4h6-----------------------------------------------------------------------------------|
Ab|-4--4-4-4-4-6--6---6---------------------------------------------------------------------------------------|
Eb|-------------------------4--4-4-4-4-4--4-4-4-4-------------------------------------------------------------|

02:14
Gb|-----------------------------------------------------------------------------------------------------------|
Db|---------------------------------------------------------13-14--13-----------------------------------------|
Ab|--------------------------------------------------------------------12--11--9--7--6------------------------|
Eb|-4~----0~----4~--2~--0~----16~--11~--9~----16~--11~--9~------------------------------5~----4~--12\---------|

03:29
Gb|-----------------------------------------------------------------------------------------------------------|
Db|-----------------------------------------------------------------------------------------------------------|
Ab|---------7--7-7-7-7-6----------------------4-6\------------------------------------------------------------|
Eb|-7-7-7-7---------------5--5-5-5-5-4----0-4-----------------------------------------------------------------|

03:41
Gb|-----------------------------------------------------------------------------------------------------------|
Db|-----------------------------------------------------------------------------------------------------------|
Ab|-----------------------------------------------------------------------------------------------------------|
Eb|-4--4-4-4-4--6-6-6-6--4--4-4-4-4--6-6-6-6--4--4-4-4-4--6-6-6-6--4--4-4-4-4--6-6-6-6--4--4-4-4-4--6-6-6--4~-|
00:00 / 00:00
Otros videos de esta canción
Repetir
Otros videos de esta canción
Compositor no encontrado.
Colaboración y revisión:
  • Walter Brow
7 vistas

0 comentarios

Ver todos los comentarios

¿Lograste tocar?

0 Tocaron 0 Aún no

¡Graba un video tocando Sol do Meu Amanhecer y envíanoslo!

00:00 / 00:00
OK