Cifra Club

Som de Bob

Natiruts

Tab de bajo: Principal
Tom - A

Intro / Canto 2x
g|----------------------||------------------|
d|----------------------||------------------|
a|----4-7777--4444--775-||---5555-------57--|
e|--5-------------------||-7------7777------|

Refrão (1) 4x
g|----------------------||----------------|
d|----------------------||----------------|
a|-----------2-------2--||-----------4----|
e|5-7-5-4-2-----222-----||--757--222---2--|

Refrão (2)
g|----------------------||-----------------|
d|----------------------||-----------------|
a|-----------2-------2--||-----------44----|
e|5-7-5-4-2-----222-----||--757--222----2--|

Canto 10x
Refrão(1) 2x
Canto 10x
Refrão(2) até o fim

***********************************
* Cifra by Thiago Paes de Barros  *
*  ---------------------------    *
* é a primeira vez que eu ajudo o *
* site, e estou muito grato pois  *
* sempre me ajudou...             * 
***********************************


_______________________________________________________
Contribuição: Thiago Paes de Barros(tgotricolor@ig.com.br)ruts - Som de Bob
00:00 / 00:00
Otros videos de esta canción
Repetir
Otros videos de esta canción
Compositor no encontrado.
Colaboración y revisión:
  • junior
44 exhibiciones
00:00 / 00:00
OK