Cifra Club

Surfista do Lago Paranoá

Natiruts

Tab de bajo: Principal
introdução: so guitarra C | D | G || O BAIXO ENTRA NO SOL NA ULTIMA COMO ESTA EM BAIXO     

                                                                                  
      intro/voz                          1X      |  REPETE VARIAS VEZES          | convencao 1:07 |                                                                                 volta pro inicio
G|---------|-----------------------------------5-|----------------------------5--|----------------|
D|---------|-------------------------------------|-------------------------------|----------------|
A|---------|----3-3--3--5-5--5--------------123--|--3--5-5---5-------------123---|-----1--8-------|
E|--33--33-|--------3-------5---3-3-1-1-3-33-----|-3-------3---3-3-1-1-3-33------|---3------------| 
                                                                                           
  eu sei que o......                                                       2x volta(eu sou surfita) 
G|--------------------------------------------------------10-10-10-10-----|
D|------------------------------------------------------------------------|
A|--3-3--3--3-3-3--5-5---5-5-5---6-6---6-6-6--6--8-8---8------------------|
E|-----5-------5-------5------5------6------6--------8--------------------|

acho que deve estar tudo certo..
00:00 / 00:00
Otros videos de esta canción
Repetir
Otros videos de esta canción
Composición de Natiruts
Colaboración y revisión:
  • junior
93 exhibiciones
00:00 / 00:00
OK