Cifra Club

Una Vez Mas

Natiruts

Cifrado: Principal (guitarra y guitarra eléctrica)
tono: A
A7M        Bbº
Mais uma vez
                  Bm7
Prisioneiro da solidão
        E7(9)
E ela está chorando
A7M        Bbº
Mas eu não sei
                   Bm7
Os segredos do girassol
       E7(9)
Nem a cor do vento
A7M       Bbº
Se eu voltar
                   Bm7         E7(9)
Terei medo de prosseguir e sobrevoar o rio inteiro
A7M       Bbº               Bm7
Graças a Deus os meus olhos podem se abrir
     E7(9)
Perceber a cor do seus
D7M       C#º                               Bm7        E7(9)
Diz .......que não merece nem abrir seus olhos para ver o sol
                                     C#m7
E nem andar pelas pedras seguindo a vista do mar
Bbº                               Bm7         E7(9)
Mas a tristeza que tinha em seu peito já foi embora
___

Intro
E|-------------------|------------------------|--------------|
B|-------------------|---------------12-12/14-|-15--12/14----|
G|-/13---------------|-/11--11-11-14----------|-----------14-|
D|------14-11--11/14-|------------------------|--------------|
A|-------------------|------------------------|--------------|
E|-------------------|------------------------|--------------|

E|-----------------------------------------------------|
B|-----------------------------------------------------|
G|-/11--14-14/16--14--13--14-14/16--14-13--------------|
D|-----------------------------------------14-11-11/14-|
A|-----------------------------------------------------|
E|-----------------------------------------------------|

E|-------------------------|--------------|-------------|
B|----------------12-12/14-|-17\----------|-12~~~~~-----|
G|-/11--11-11-14-----------|-----14-14/16-|-11~~~~~-----|
D|-------------------------|--------------|-------------|
A|-------------------------|--------------|-------------|
E|-------------------------|--------------|-------------|

Solo
E|---------------------------------------------|
B|--------17---19(20)19p17p15\--13(14)---------|
G|---14/16----------------------------14-------|
D|-14-----------------------------------14-----|
A|---------------------------------------------|
E|---------------------------------------------|

E|-------------------------------10-------------------------------------------|
B|-12(13)-10-------10h12-12/14-----12b-10~------------------------------------|
G|-------------11\----------------------------11-9----------------11-14-14-14-|
D|-------------------------------------------------/9-7-8-7-9-9/11------------|
A|----------------------------------------------------------------------------|
E|----------------------------------------------------------------------------|

E|-------------------------------10-12------10-12------10-12-12~--10-12--------|
B|------------------10-12(14)----------12~--------12~-------------------12~-10-|
G|-11p9------------------------------------------------------------------------|
D|------7/9-7-7----------------------------------------------------------------|
A|-----------------------------------------------------------------------------|
E|-----------------------------------------------------------------------------|

E|----------------------------------------------------|
B|--------------------------------14-14---------------|
G|-11p9-----------------14--------14-14---------------|
D|------9\7-7/9-11---------16-14---------16p14--------|
A|----------------------------------------------------|
E|----------------------------------------------------|
00:00 / 00:00
Otros videos de esta canción
Repetir
Otros videos de esta canción
Composición de Alexandre Carlo
Colaboración y revisión:
748 exhibiciones
    • ½ Tono
    • A
    • Bb
    • B
    • C
    • Db
    • D
    • Eb
    • E
    • F
    • F#
    • G
    • Ab
  • Agregar a la lista
    00:00 / 00:00
    OK