Cifra Club

Aprenda

Una Vez Mas

Natiruts

Tab de bajo: Principal
G|-----------------------------------------------------------------------------------------------------------|
D|-----------------------------------------------------------------------------------------------------------|
A|-----------------------------------------------------------------------------------------------------------|
E|-5-5------5-7-5-----6-6------5-7-5-----7-7------5-7-5---5--------------------------------------------------|
B|------5-7-------7-5------5-7-------7-5------5-7-------7---5--5/17-17\--------------------------------------|

G|-----------------------------------------------------------------------------------------------------------|
D|-----------------------------------------------------------------------------------------------------------| 
A|---7/9-7--------------------------------------7-7---7--7-7-9-7---------------------------------------------|  (4x)
E|-5--------5-5-6-6-6----5-------7-7----7---7-7-----7--------------------------------------------------------|
B|---------------------7---7-5-7------7---7------------------------------------------------------------------|

G|------------------------------------------------------9-------------------------------------------------------|
D|----------------------------------------------------9---------------------------------------------------------| 
A|-5-5---5-5-5---5/9-9---9-9------------------------7-----------------------------------------------------------|
E|-----5-------5-------9-----10-10-10-9-9-9-7-9-9---------10-10-9-9-5---5---5-5-6---6---6-6-7-7/9-----7-7/9-----|
B|------------------------------------------------7-------------------5---5-------6---6-----------7-7-------7-7-|

G|-----------------------------------------------------------------------------------------------------------|
D|-----------------------------------------------------------------------------------------------------------|
A|--------------------------------------------------------------7/9-7-----7h9p7------------------------------|
E|-5-5------5-7-5-----6-6------5-7-5-----7-7------5-7-5---5-----------7h9-------9p7--------------------------|
B|------5-7-------7-5------5-7-------7-5------5-7-------7---5-5----------------------------------------------|

G|-----------------------------------------------------------------------------------------------------------|
D|-----------------------------------------------------------------------------------------------------------|
A|-----------------------------------------------------------------------------------------------------------|
E|-5-5------5-7-5-----6-6------5-7-5-----7-7------5-7-5---5--------------------------------------------------|
B|------5-7-------7-5------5-7-------7-5------5-7-------7---5--5/17-17\--------------------------------------|

G|-----------------------------------------------------------------------------------------------------------|
D|-----------------------------------------------------------------------------------------------------------| 
A|---7/9-7--------------------------------------7-7---7--7-7-9-7---------------------------------------------|  (4x)
E|-5--------5-5-6-6-6----5-------7-7----7---7-7-----7--------------------------------------------------------|
B|---------------------7---7-5-7------7---7------------------------------------------------------------------|

G|------------------------------------------------------9-------------------------------------------------------|
D|----------------------------------------------------9---------------------------------------------------------| 
A|-5-5---5-5-5---5/9-9---9-9------------------------7-----------------------------------------------------------|  (2x)
E|-----5-------5-------9-----10-10-10-9-9-9-7-9-9---------10-10-9-9-5---5---5-5-6---6---6-6-7-7/9-----7-7/9-----|
B|------------------------------------------------7-------------------5---5-------6---6-----------7-7-------7-7-|

G|-----------------------------------------------------------------------------------------------------------|
D|-----------------7/9-7--7-7------------------7/9-7--7/9-7--------------------------------------------------| 
A|---7/9-7--7-7--5---------------7/9-7--7-7--5-----------------4----5----------------------------------------|
E|-5---------------------------5-----------------------------------------------------------------------------|
B|-----------------------------------------------------------------------------------------------------------|
Compositor Alexandre Carlo
Colaboración y revision:
  • Walter Brow

0 comentarios

Mostrar mais comentários

¿Conseguiste tocar?

0 Tocaron 0 Ainda não

Grave um vídeo tocando Una Vez Mas e mande pra gente!

00:00 / 00:00
outros vídeos desta música
repetir qualidade Automático
Outros vídeos desta música
00:00 / 00:00
Automático
OK