Cifra Club

Verbalize

Natiruts

Tablatura: Principal (guitarra)
Tom: A#
Intro:   ( Gm Cm7 Dm7 )

Enfrentarei todo o mal, só pra te ver...
Junto da boca do mar, quero viver...
A musa do meu astral, mentalize...
Para acalmar geral, verbalize...

          ( Gm Eb7+ Dm7 )

Todas as luzes e todos os sons
E nem a claridade de um sonho bom vai 
Abrir os meus olhos e a minha cabeça
Se pra toda a idéia eu tiver uma barreira
Faço o que faço, sou o que sou
E de nada importa o que se falou
Dos versos do povo dessa tradição
Eu quero é cantar pró resto dessa vida.......

          ( Gm Cm7 Dm7 )

Enfrentarei todo o mal, só pra te ver...
Junto da boca do mar, quero viver...
A musa do meu astral, mentalize...
Para acalmar geral, verbalize...

           ( Gm Eb7+ Dm7 )

Todas as luzes e todos os sons
E nem a claridade de um sonho bom vai 
Abrir os meus olhos e a minha cabeça
Se pra toda a idéia eu tiver uma barreira
Faço o que faço, sou o que sou
E de nada importa o que se falou
Dos versos do povo dessa tradição
Eu quero é cantar pró resto dessa vida.......

           ( Gm Cm7 Dm7 )

Enfrentarei todo o mal, só pra te ver...
Junto da boca do mar, quero viver...
A musa do meu astral, mentalize...
Para acalmar geral, verbalize...

SOLO : a base é a mesma Gm Eb7+ Dm7 da música toda. Gm 4 Tempos e Eb7+ e Dm7 2 Tempos

      1º Parte.....                                                 NA  NA  NA   NA  NA    NA    NAN...  
E|------------------------------------------|---------------------------------------------|         
B|---------------6--6-------6---8-----------|---------------------------------------------|
G|-----------7----------7------------5br(6)-|--3--5--3--2--3--2---------------------------|
D|--5--5/8----------------------------------|--------------------3--0--5/7--------3---5---|
A|------------------------------------------|--------------------------------3/5----------|
E|------------------------------------------|---------------------------------------------|
                         
E|--------------------------------------------------------13---15---13s15--15--15--15--15-|
B|-------8------10b(11)----------------13br(15)---11h13-----------------------------------|
G|--7s8-----8-------------10s12---12------------------------------------------------------|
D|----------------------------------------------------------------------------------------|
A|----------------------------------------------------------------------------------------|
E|----------------------------------------------------------------------------------------|

E|--13--15br(16)--13--------13h15---13---------13-----------------------------------------|
B|---------------------15-----------------13b-------13b--13b--13--11--13---11h13---11-----|
G|----------------------------------------------------------------------------------------|
D|----------------------------------------------------------------------------------------|
A|----------------------------------------------------------------------------------------|
E|----------------------------------------------------------------------------------------|
    
E|--------------------------------------------------------------10----------13------------|
B|---13b(15)---13---11h13--13-------------------8-------10/11---------11------------------|
G|------------------------------12-----7--7/8-------8-------------------------------------|
D|----------------------------------------------------------------------------------------|
A|----------------------------------------------------------------------------------------|
E|----------------------------------------------------------------------------------------|
     
E|--17--------18b(20)----18----17----15s17-----13----------13s15---15---18---13s15--------|
B|-------18------------------------------------------15-----------------------------------|
G|----------------------------------------------------------------------------------------|
D|----------------------------------------------------------------------------------------|
A|----------------------------------------------------------------------------------------|
E|----------------------------------------------------------------------------------------|

E|--------------------------------------------------------------13s15--15--15-------------|
B|--13br(15)--------11------13br(15)--------11----13br(15)----------------------13br(15)--|
G|-------------12----------------------12-------------------12----------------------------|
D|----------------------------------------------------------------------------------------|
A|----------------------------------------------------------------------------------------|
E|----------------------------------------------------------------------------------------|

E|--------------------------------------------------------------------------------------------|
B|---11---13---11h13--11----13b(15)---13--11--13--11------11--13--13b(15)--13--11h13--11------|
G|----------------------------------------------------12----------------------------------12\-|
D|--------------------------------------------------------------------------------------------|
A|--------------------------------------------------------------------------------------------|
E|--------------------------------------------------------------------------------------------|


Legenda:

br - bend e reverse
b - bend
s - slide
/ - slide
h - hammer-on

Voce pode tambem Eb7+ e usar B na 6ª casa
reproducciones 442
Acordes para:
    Composição: Natiruts Colaboración y revision:

    0 comentarios

    mostrar más comentarios

    ¿Conseguiste tocar?

    4 tocaron 0 aún no

    ¡Graba un vídeo tocando Verbalize y envianoslo!

    00:00 / 00:00
    outros vídeos desta música
    repetir qualidade Automático
    Outros vídeos desta música
    00:00 / 00:00
    Automático
    OK