Cifra Club

Verbalize

Natiruts

Bass tab: Principal
Obs.: Caso seja usado um baixo de 4 cordas... recomendo tocar a oitava da nota D quando ela for 
      executada na quinta corda da tablatura.


INTRODUÇÃO
G C D

G-----
D-----
A-17/-
E-----
B-----

BASE
G----------------------------------------
D----------------------------------------
A---1---------1-3-5--6-6-6-6-6-5-5-5-3---
E-3---3---3-3--------------------------6-
B-------3--------------------------------

REFRÃO
G-------------------------------------------
D-------------------------------------------
A-------3--------------3-3-3-3---5-5---5-5--
E-3-5-3---6-5-3--3-6-3---------3-----5------
B-------------------------------------------
00:00 / 00:00
Other videos of this song
Repeat
Other videos of this song
Composed by Natiruts
Collaboration and Review:
  • Marcelo Barce
58 views
00:00 / 00:00
OK