Cifra Club

Love Hurts

Nazareth

Cifrado: Principal (guitarra y guitarra eléctrica)
tono: C
[Intro]

    G                G                 F  C
E|----------3----------------3------|-1--0--|
B|------3-----3---3------3-----3----|-1--1--|
G|----0---0-----0------0---0-----0--|-2--0--|
D|----------------------------------|-3--2--|
A|----------------------------------|-3--3--|
E|-3----------------3---------------|-1-----|

[Primeira Parte]

      G
Love hurts
       Em
Love scars
      C
Love wounds 
     D
And marks

C    G
Any heart 
     Em
Not tough 
      C
Or strong 
  D
Enough

    C             G
To take a lot of pain
 B7            Em
Take a lot of pain
 B7              C
Love is like a cloud
            D       C
Holds a lot of rain
      G
Love hurts

F   C        G
Oh, oh love hurts

[Segunda Parte]

     G
I'm young
    Em
I know
    C    D
But even so

C          G
I know a thing 
     Em
Or two
    C
I learned 
      D
From you

   C                G
I really learned a lot
 B7               Em
Really learned a lot
 B7              C
Love is like a flame
                  D        C
It burns you when it's hot

      G
Love hurts
F   C         G
Oh, oh, love hurts

[Terceira Parte]

 Em                  B7   Em
Some fools think of happiness
  B7     Em      B7    Em
Blissfulness, togetherness
 A7
Some fools fool themselves, I guess
  Am                 D
They're not foolin' me

    C             G
I know it isn't true
    B7            Em
I know it isn't true
 B7             C
Love is just a lie 
         D            C
Made to make you blue
      G
Love hurts

F   C         G
Oh, oh, love hurts
F   C         G
Oh, oh, love hurts

[Solo] G  Em  C  D  C
       G  Em  C  D

[Solo]

E|----------------------------------------------------|
B|-8~~b10r8--8~~b12r8--8~b12r-b10~~b12r8--------------|
G|----------------------------------------------------|
D|----------------------------------------------------|
A|----------------------------------------------------|
E|----------------------------------------------------|

E|---------------------------------22~~---------------|
B|-8~~b12r8--8~~b12r8--8~b10--b10~--------------------|
G|----------------------------------------------------|
D|----------------------------------------------------|
A|----------------------------------------------------|
E|----------------------------------------------------|

[Quarta Parte]

    C             G
I know it isn't true
    B7            Em
I know it isn't true
 B7             C
Love is just a lie 
         D            C
Made to make you blue
      G
Love hurts

F   C         G
Oh, oh, love hurts
F   C         G
Oh, oh, love hurts
F   C
Oh, oh
00:00 / 00:00
Otros videos de esta canción
Repetir
Otros videos de esta canción
Composición de Boudleaux Bryant
21.004 exhibiciones
    • ½ Tono
    • A
    • Bb
    • B
    • C
    • Db
    • D
    • Eb
    • E
    • F
    • F#
    • G
    • Ab
  • Agregar a la lista
    00:00 / 00:00
    Capítulos
    • Tocando a Música
    • Dicas Iniciais / Equipamentos
    • Configuração do Amplificador
    • Acordes da Introdução
    • Tocando a Introdução
    • Ensinando a Introdução
    • Acordes da Primeira Parte
    • Tocando a Primeira Parte
    • Ensinando a Primeira Parte - Primeira Estrofe
    • Ensinando a Primeira Parte - Segunda Estrofe
    • Acordes da Terceira Parte
    • Tocando a Segunda e Terceira Partes
    • Ensinando o Ritmo da Terceira Parte
    • Tocando o Solo
    • Ensinando o Solo (adaptação)
    • Encerramento
    • Ficha Técnica / Erros de Gravação
    OK