Cifra Club

Você Vai Ficar Em Mim

Nechivile

Cifrado: Principal (guitarra y guitarra eléctrica)
tono: C
Intro:
    C   G          Am  F                       C      G        Am  F                    C
E|-------------------/13-13-12-12--------------------------------/13-13-12-12----------|
B|-0-1-3--0-1-3--0-1--------------15-15-13-12-13--1h3-0-1--3---1--------------15-15-13-|
G|-----------------------------------------------------------0-------------------------|
D|-------------------------------------------------------------------------------------|
A|-------------------------------------------------------------------------------------|
E|-------------------------------------------------------------------------------------|


 C             G
Você vai ficar em mim,
Am             F (pausa)
Pode crer, não dá pra esquecer,
C                   G
E um amor tão forte assim
Am           F
Quando vem, faz a gente se perder,

Dm           G     Dm                G
Faz o coração doer, faz a gente enlouquecer.

Refrão:

       C                       Am
Eu só sei fazer amor te chamando,
               F
Gritando o seu nome.
              G
Eu só sei te amar...
      C                     Am
Sinto falta de você quando some,
             F
A dor me consome.

F                            G
Eu sei que nunca mais te esqueço,
F                              G
Pois basta só fechar os meus olhos

Pra te lembrar...
Intro:
    C   G          Am  F                       C      G        Am  F                    C
E|-------------------/13-13-12-12--------------------------------/13-13-12-12----------|
B|-0-1-3--0-1-3--0-1--------------15-15-13-12-13--1h3-0-1--3---1--------------15-15-13-|
G|-----------------------------------------------------------0-------------------------|
D|-------------------------------------------------------------------------------------|
A|-------------------------------------------------------------------------------------|
E|-------------------------------------------------------------------------------------|


 C             G
Você vai ficar em mim,
Am             F (pausa)
Pode crer, não dá pra esquecer,
C                   G
E um amor tão forte assim
Am           F
Quando vem, faz a gente se perder,

Dm           G     Dm                G
Faz o coração doer, faz a gente enlouquecer.

Refrão:

       C                       Am
Eu só sei fazer amor te chamando,
               F
Gritando o seu nome.
              G
Eu só sei te amar...
      C                     Am
Sinto falta de você quando some,
             F
A dor me consome.

F                            G
Eu sei que nunca mais te esqueço,
F                              G
Pois basta só fechar os meus olhos

       C                       Am
Eu só sei fazer amor te chamando,
               F
Gritando o seu nome.
              G
Eu só sei te amar...
      C                     Am
Sinto falta de você quando some,
             F
A dor me consome.

F                            G
Eu sei que nunca mais te esqueço,
F                              G
Pois basta só fechar os meus olhos

Pra te lembrar...
00:00 / 00:00
Otros videos de esta canción
Repetir
Otros videos de esta canción
Composición de Cristiano Araujo
Colaboración y revisión:
  • Allan caixeta
  • Lucas marques
  • Vinícius Brás
170 vistas
    • ½ Tono
    • A
    • Bb
    • B
    • C
    • Db
    • D
    • Eb
    • E
    • F
    • F#
    • G
    • Ab
  • Agregar a la lista

    0 comentarios

    Ver todos los comentarios

    ¿Lograste tocar?

    9 Tocaron 0 Aún no

    ¡Graba un video tocando Você Vai Ficar Em Mim y envíanoslo!

    00:00 / 00:00
    OK