Cifra Club

Just A Dream The Rite Way

Nelly

Cifrado: Principal (guitarra y guitarra eléctrica)
Selo Cifra Club: esta cifra foi revisada para atender aos critérios oficiais da nossa Equipe de Qualidade.
tono: Bbm
intro
E|--2-6-2--1-2-6-|----4-----|-----------------|---------------|
B|-4-----4------4|---4---4--|----7------------|-6----6--6-----|
G|3--3-3--3------|-2--2-2-2-| 6--------6-3-6-3-|--6-6--6---6---|
D|---------------| 2-2--2-2-2|-4-4-4-4----4---4|6--6-6--6-----6|
A|---------------|----------|-----------------|---------------|
E|---------------|----------|-----------------|---------------|

verse
e|66666666666642-46-6-666666642-6-6-6-6-6-4-2-444444642-266666664222-|
B|-------------------------------------------------------------------|
G|-------------------------------------------------------------------|
D|-------------------------------------------------------------------|
A|-------------------------------------------------------------------|
E|-------------------------------------------------------------------|

verse continued...                   pre-chorus          chorus
e|6666666922-266666669-4444444444642|-22-22-22-22-22-42-|22-11111199999|
B|----------------------------------|---2-----2-----2---|--------------|
G|----------------------------------|-------------------|--------------|
D|----------------------------------|-------------------|--------------|
A|----------------------------------|-------------------|--------------|
E|----------------------------------|-------------------|--------------|

chorus continued...
E|99999999-99999999-9-99999-14-16---22999999-12-9999999-12-99996699999-14-16--|
B|----------------------------------------------------------------------------|
G|----------------------------------------------------------------------------|
D|----------------------------------------------------------------------------|
A|----------------------------------------------------------------------------|
E|----------------------------------------------------------------------------|
Otros videos de esta canción
    2 exhibiciones
      • ½ Tono
      • Am
      • Bbm
      • Bm
      • Cm
      • C#m
      • Dm
      • Ebm
      • Em
      • Fm
      • F#m
      • Gm
      • G#m
    • Agregar a la lista

    Afinação da cifra

    Afinador online

      Ops (: Contenido disponible solo en portugués.
      OK