Cifra Club

Camila, Camila

Nenhum de Nós

Cifrado: Principal (guitarra y guitarra eléctrica)
Selo Cifra Club: esta cifra foi revisada para atender aos critérios oficiais da nossa Equipe de Qualidade.
tono: G
[Intro] D

  D
E|---------0----------------------------|
B|----3------3--------------------------|
G|------2------2------------------------|
D|--0-------------4---------------------|
A|--------------------------------------|
E|--------------------------------------|

  Em
E|-------2---0------0------2---0--------|
B|---3-----3---3------3------3---3------|
G|-----0----------------0---------------|
D|-2--------------2---------------------|
A|--------------------------------------|
E|--------------------------------------|

  G
E|-------0------------------------------|
B|---3-----3----------------------------|
G|-----0--------------------------------|
D|--------------------------------------|
A|--------------------------------------|
E|-3------------------------------------|

[Primeira Parte]

  D9
Depois da última noite de festa
   Em                      G         D9
Chorando e esperando amanhecer, amanhecer

As coisas aconteciam
       Em                     G          D9
Com alguma explicação, com alguma explicação

Depois da última noite de chuva
   Em                     G           D
Chorando e esperando amanhecer, amanhecer

Às vezes peço a ele
          Em             G   D9
Que vá embora, que vá embora, oh

[Refrão]

   C      Bm      Am7
Camila, Camila, Camila

  G
E eu que tenho medo até de suas mãos
 F7M
Mas o ódio cega e você não percebe
Bm               C
Mas o ódio cega, ah
  G
E eu que tenho medo até do seu olhar
 F7M
Mas o ódio cega e você não percebe
Bm               C    
Mas o ódio cega, ah

[Segunda Parte]

( D9   Em   G   D9 )

D9
As lembranças do silêncio
          Em              G        D9
Daquelas tardes, daquelas tar...des

Na vergonha  do espelho
          Em            G   D9
Naquelas marcas daquelas marcas

Havia algo de insano
          Em             G6   D9
Naqueles olhos, olhos insanos

Os olhos que passavam o dia
        Em           G   D9
A me vigiar, a me vigiar, oh

[Refrão]

   C      Bm      Am7
Camila, Camila, Camila 
   C      Bm      Am7
Camila, Camila, Camila 

  C
E eu que tinha apenas dezessete anos
    Bm
Baixava minha cabeça pra tudo
         Am7
E era assim que as coisas aconteciam
         
E era assim que eu via tudo acontecer 

  C
E eu que tinha apenas dezessete anos
    Bm
Baixava minha cabeça pra tudo
         Am7
E era assim que as coisas aconteciam
         
E era assim que eu via tudo acontecer 

[Refrão]

   C       Bm  Am7
Camila, Camila 
   C       Bm      Am7
Camila, Camila, Camila

[Final] D9  Em  G  
        D9  Em  G  D9
Otros videos de esta canción
    8.619 exhibiciones
      • ½ Tono
      • A
      • Bb
      • B
      • C
      • Db
      • D
      • Eb
      • E
      • F
      • F#
      • G
      • Ab
    • Agregar a la lista

    Afinação da cifra

    Afinador online

      Ops (: Contenido disponible solo en portugués.
      OK