Cifra Club

Da janela

Nenhum de Nós

Cifrado: Principal (guitarra y guitarra eléctrica)
Selo Cifra Club: esta cifra foi revisada para atender aos critérios oficiais da nossa Equipe de Qualidade.
tono: D
(intro 2x) D D7+ G A Bm D E G

E|-----------------2-5---------
B|------------3--5-------------
G|--2-4-2----------------------
D|---------4-------------------
A|-----------------------------
E|-----------------------------

E|-----------------------------
B|-----------------------------
G|-2-4-2---0--2-4-2------------
D|-------4---------------------
A|-----------------------------
E|-----------------------------

E|----------------------------------------------------------
B|-----------3------------3------------3h5--3-0-------------
G|-2-4-2-------2-4-2--------2-4-2---------------------------
D|--------4-----------4------------4------------------------
A|----------------------------------------------------------
E|----------------------------------------------------------

D                   D7+
Da janela eu vejo a rua
A        G
Onde ela caminha
     D   F#
Todo dia
     Bm
Ela passa
               D     E
E sempre acha graça quando me vê

        D          D7+
Mas ela passa tão depressa
     A           G
Que eu não tenho tempo
         D     F#
E nem coragem
           Bm
De abrir a boca e fazer a
D            E
pergunta que eu ensaiei, ensaiei

                D D7+
 Voce ainda me ama?
    G A
                D D7+
 Voce ainda me ama?

( G A ) 

   Bm
Eu sei que no fundo,
D
bem no fundinho
      E
Voce ainda me ama

       D               D7+
Mas da janela eu vejo a rua
A          G
Onde ela caminha
          D  F#
No fim do dia
              Bm
Na volta pra casa
              D
Já esta tao escuro que ela já
     E
Não mais me vê

       Bm
Mas eu tenho que chamar
D
Eu tenho que gritar
    E               G
Eu tenho que fazer ela parar
       Bm
Quem sabe ate
      D
Fazer ela voltar
   E
Eu tenho mesmo é que
G
Perguntar, que perguntar

(repete estribilho)

(solo)
E|--------------------------------------------------
B|---------------------------------------3----------
G|---0-2-2-2-2h4-2---2-2-2-2h4-2-0---0-2------------
D|-4---------------4---------------4----------------
A|--------------------------------------------------
E|--------------------------------------------------

         Bm
Mas eu tenho que chamar
   D
Eu tenho que gritar
   E               G
Eu tenho que fazer ela parar
      Bm
Quem sabe até fazer
D
Ela voltar
   E
Eu tenho mesmo é que
 G
Perguntar, que perguntar

(refrão 4x)

  Bm                  D
Eu sei que no fundo, bem no fundinho
     E
Você ainda me ama

(intro riff) D D7+ G A Bm D E G
             D D7+ G A Bm D E G E G A D
Otros videos de esta canción
    228 exhibiciones
      • ½ Tono
      • A
      • Bb
      • B
      • C
      • Db
      • D
      • Eb
      • E
      • F
      • F#
      • G
      • Ab
    • Agregar a la lista

    Afinação da cifra

    Afinador online

      Ops (: Contenido disponible solo en portugués.
      OK