Cifra Club

Vou Deixar Que Você Se Vá

Nenhum de Nós

Cifrado: Principal (guitarra y guitarra eléctrica)
Selo Cifra Club: esta cifra foi revisada para atender aos critérios oficiais da nossa Equipe de Qualidade.
tono: Bm
E|-----------------------------------------|
B|------7--------------------7-------------|
G|--7-9--9-7-6-----------7-9--9-7-6--------|
D|-------------9-7------------------9-7----|
A|-----------------------------------------|
E|-----------------------------------------|

E|-----------------------------------------|
B|-----------------------------------------|
G|---------7-6-7-6---------------7-6-7-6~--|
D|-7-5-7-9---------9-7-----5-7-9-----------|
A|-----------------------------------------|
E|-----------------------------------------|

( Bm  F#m  Bm  F#m  Fm )
( Em  A  Em  A  A# )
( Bm  F#m  Bm  F#m  Fm )
( Em  A  Em  A  A# )

Bm                  F#m
Minhas mãos estão cansadas
Bm                  F#m     Fm  Em
Não tenho mais onde me agarrar
Em         A
Tudo já se foi
Em          A      A#
Amizade, carinho e amor

Bm            F#m
Não há mais porque lutar
Bm            F#m      F#m  Fm
Minhas mãos estão cansadas
Em               A
Não vou mais lhe segurar
Em               A        Em  A  A#º
Vou deixar que você se vá

[Refrão]

B       F#      C#m    E
Não vou mais lhe segurar
B       F#      C#m    E
Vou deixar que você se vá
B       F#      C#m    E
Não vou mais lhe segurar
B       F#      C#m    E  Em
Vou deixar que você se vá

( Bm  F#m  Bm  F#m  Fm  Em)

Em               A
Procure o seu caminho
Em               A
Eu aprendi a andar sozinho
Em               A
Isso foi há muito tempo atrás
Em               A    A#
Mas ainda sei como se faz

Bm                  F#m
Minhas mãos estão cansadas
Bm                  F#m  Fm Em
Não tenho mais onde me agarrar
Em               A
Não vou mais lhe segurar
Em               A        Em  A  A#º
Vou deixar que você se vá

[Refrão]

B       F#      C#m    E
Não vou mais lhe segurar
B       F#      C#m    E
Vou deixar que você se vá
B       F#      C#m    E
Não vou mais lhe segurar
B       F#      C#m    E   Em
Vou deixar que você se vá...aaa

[Solo] B  F#  C#m  E  
       B  F#  C#m  E
Otros videos de esta canción
    717 exhibiciones
      • ½ Tono
      • Am
      • Bbm
      • Bm
      • Cm
      • C#m
      • Dm
      • Ebm
      • Em
      • Fm
      • F#m
      • Gm
      • G#m
    • Agregar a la lista

    Afinação da cifra

    Afinador online

      Ops (: Contenido disponible solo en portugués.
      OK