Cifra Club

Cruel Angels

Neon Genesis Evangelion

Cifrado: Principal (guitarra y guitarra eléctrica)
tono: F
(intro)
-------------------------------------------------------------------------|
----------------------------------------------1-----------------------1--|   /
------------------------3--1--0-------0--0--3-----------3--3--0--3--3----|---|   2 X
-----1--1h3--1--3--3--3------------3--------------3--1-------------------|---|
--3----------------------------------------------------------------------|   \
-------------------------------------------------------------------------|

(verso)
---------------------------------------------------------------
---------------------------------------------------------------
-----------------------------0--1--0-----------0--1--0---------
--1--------1--1--3--------------------3--1--3------------------
-----1--1-----------1--1--1-----------------------------3------
---------------------------------------------------------------

------------------------------------------------------------------
------------------------------------------------------------------
--------------------------1--0--------0--0------------------------
-----0--1--1--0--0--1--3--------3--1--------3--2--3---------------
--3--------------------------------------------------3--3--5--5---
------------------------------------------------------------------

(replace the last part with this the second time around)
---------------------------------------------------------------
---------------------------------------------------------------
-----------------------------0--1--0-----------0--1--0---------
--1--------1--1--3--------------------3--1--3------------------
-----1--1-----------1--1--1-----------------------------3------
---------------------------------------------------------------

-----------------------------------------------------------------
-----------------------------------------------------------------
--------------------------1--0--------0--0-----------------------
-----0--1--1--0--0--1--3--------3--1--------3--2--3-----0--1--0--
--3--------------------------------------------------------------
-----------------------------------------------------------------

(pré-refrão)
-------------------------------------------------------------
-------------------------------------------------------------
-------------------------------------------------------------
--1--1--0--1--1--0--3--3--1--0-----0--1--1--0--3--0----------
--------------------------------3--------------------3--1----
-------------------------------------------------------------

-------------------------------------------------------------
-------------------------------------------------------------
-----------------------------------------------------1--0----
--1--1--0--1--1--0--3--3--1--0-----0--1--1--0--1--3----------
--------------------------------3----------------------------
-------------------------------------------------------------

(refrão final)
------------------------------------------------------------------------------
--------------------------------------------1---------------------------------
-----------------------3--1--0-----0--0--3------------------------------------
-----1--3--1--3--3--3-----------3--------------3--1--0--0-----0--3--1--1------
--3--------------------------------------------------------3------------------
------------------------------------------------------------------------------

-------------------------------------------------------------------------|
----------------------------------------------1-----------------------1--|   /
------------------------3--1--0-------0--0--3-----------3--3--0--3--3----|---|   2 X
-----1--1h3--1--3--3--3------------3--------------3--1-------------------|---|
--3----------------------------------------------------------------------|   \
-------------------------------------------------------------------------|
00:00 / 00:00
Otros videos de esta canción
Repetir
Otros videos de esta canción
Compositor no encontrado.
Colaboración y revisión:
  • Hugo Moradillo
206 vistas
    • ½ Tono
    • A
    • Bb
    • B
    • C
    • Db
    • D
    • Eb
    • E
    • F
    • F#
    • G
    • Ab
  • Agregar a la lista

    0 comentarios

    Ver todos los comentarios

    ¿Lograste tocar?

    1 Tocaron 0 Aún no

    ¡Graba un video tocando Cruel Angels y envíanoslo!

    00:00 / 00:00
    OK