Cifra Club

En Wannabe Darth Vader

Nephew

Cifrado: Principal (guitarra y guitarra eléctrica)
tono: Ab
intro
 1x              2x
|---------------|-------------------------------------------------|
|---------------|-------------------------------------------------|
|-3~(feedback)--|.--5~--8~--10~----------------------------------.|
|---------------|.-----------------------------------------------.|
|---------------|-------------------------------------------------|
|---------------|-------------------------------------------------|


Verse 1
 2x              2x
|---------------|-------------------------------------------------|
|---------------|-------------------------------------------------|
|---------------|.--5~--8~--10~----------------------------------.|
|---------------|.-----------------------------------------------.|
|---------------|-------------------------------------------------|
|---------------|-------------------------------------------------|


chorus
 2x                          1x
|---------------------------|-------------------------------------|
|---------------------------|-------------------------------------|
|.-------------------------.|-------------------------------------|
|.---------------------5~--.|----------88888888-55555555----------|
|---66666666-66666666--3~---|-66666666-66666666-33333333----------|
|---44444444-44444444-------|-44444444----------------------------|
 1x
|-----------------------------------------------------------------|
|-----------------------------------------------------------------|
|-----------------------------------------------------------------|
|---------8888888810-10-10-10-10-10-10-10-13-13-13-13-13-13-13-13-|
|-66666666666666668--8--8--8--8--8--8--8--11-11-11-11-11-11-11-11-|
|-44444444--------------------------------------------------------|


bridge
 2x
|-------------------------------------|---------------------------|
|-------------------------------------|---------------------------|
|.--3-5-5-3-5-5-3-5-8-8-8-7-7-7-8-7--.|-5~------------------------|
|.-----------------------------------.|---------------------------|
|-------------------------------------|---------------------------|
|-------------------------------------|---------------------------|


Verse 2
 2x              2x
|---------------|-------------------------------------------------|
|---------------|-------------------------------------------------|
|---------------|.--3-5-5-3-5-5-3-5-8-8-8-7-7-7-8-7--------------.|
|---------------|.-----------------------------------------------.|
|---------------|-------------------------------------------------|
|---------------|-------------------------------------------------|
                 pm . . . . . . . . . . . . . . . .

chorus
 2x                          1x
|---------------------------|-------------------------------------|
|---------------------------|-------------------------------------|
|.-------------------------.|-------------------------------------|
|.---------------------5~--.|----------88888888-55555555----------|
|---66666666-66666666--3~---|-66666666-66666666-33333333----------|
|---44444444-44444444-------|-44444444----------------------------|
 1x
|-----------------------------------------------------------------|
|-----------------------------------------------------------------|
|-----------------------------------------------------------------|
|---------8888888810-10-10-10-10-10-10-10-13-13-13-13-13-13-13-13-|
|-66666666666666668--8--8--8--8--8--8--8--11-11-11-11-11-11-11-11-|
|-44444444--------------------------------------------------------|
 1x
|-----------------------------------------------------------------|
|-----------------------------------------------------------------|
|-----------------------------------------------------------------|
|-55555555-55555555-55555555-55555555-----------------------------|
|-33333333-33333333-33333333-33333333-----------------------------|
|-----------------------------------------------------------------|


Verse 3
 1x
|-----------------------------------------------------------------|
|-----------------------------------------------------------------|
|-----------------------------------------------------------------|
|-5~--------------------------------------------------------------|
|-3~--------------------------------------------------------------|
|-----------------------------------------------------------------|

chorus
 2x                          1x
|---------------------------|-------------------------------------|
|---------------------------|-------------------------------------|
|.-------------------------.|-------------------------------------|
|.---------------------5~--.|----------88888888-55555555----------|
|---66666666-66666666--3~---|-66666666-66666666-33333333----------|
|---44444444-44444444-------|-44444444----------------------------|
 1x
|-----------------------------------------------------------------|
|-----------------------------------------------------------------|
|-----------------------------------------------------------------|
|---------8888888810-10-10-10-10-10-10-10-13-13-13-13-13-13-13-13-|
|-66666666666666668--8--8--8--8--8--8--8--11-11-11-11-11-11-11-11-|
|-44444444--------------------------------------------------------|

outro
 1x        repeat      repeat                end & let ring
|---------|-----------|---------------------|---------------------|
|---------|-----------|---------------------|---------------------|
|-5~-/10~-|.-8-8-7-8-.|.-8-8-7-8-10-10-8-7-.|-7~------------------|
|---------|.---------.|.-------------------.|---------------------|
|---------|-----------|---------------------|---------------------|
|---------|-----------|---------------------|---------------------|
00:00 / 00:00
Otros videos de esta canción
Repetir
Otros videos de esta canción
Composición de Kasper Toustrup / Kristian Riis / Simon Kvamm / Soren Arnholt
35 exhibiciones
    • ½ Tono
    • A
    • Bb
    • B
    • C
    • Db
    • D
    • Eb
    • E
    • F
    • F#
    • G
    • Ab
  • Agregar a la lista
    00:00 / 00:00
    OK