Cifra Club

It´s over now

Neve

Cifrado: Principal (guitarra y guitarra eléctrica)
Selo Cifra Club: esta cifra foi revisada para atender aos critérios oficiais da nossa Equipe de Qualidade.
tono: C
Tuning:
Standard (EADGBE)

Chords:
Cadd9 - x32033
G - 320033
Dm7 - xxx231
Fm9 - xx3113
C5 - x355xx
G5 - 355xxx
D5 - x577xx
F5 - x81010xx
C5/B - x255xx
Bb5 - x133xx
F5_2 - 133xxx
C - x32010
Bb - x13331
Gm - 355333


Intro:
Cadd9 G Dm7 Fm9 *

Verse:
Cadd9
She comes up and over time 
G
She'll see what I could be 
Dm7
A cold routine or something 
Fm9
It just won't stop touching me 
Cadd9
And I wait here another time 
G
Like a thousand times before 
Dm7
I'm dropping out and faded 
Fm9
But I keep on wanting more

Interlude:
C5      G5      D5      F5

Verse Type 2:
C5
She comes up another time 
C5/B                  G5
And she really really doesn't care 
D5
That I can't keep time or the rhythm straight 
F5                                               **
'Cause it's one thing she don't dare 
C5             
And it's alright I drop the line     
C5/B                     G5       
Now it's one thing to be free 
D5
Well I never really had a thing for that 
         F5
But it's everything I need

Chorus: 
C5            G5        D5
And you don't ever understand 
     F5                C5
It's right here in our hands 
    G5             D5
The outline of our lives 

It's over now

(Verse Type 2)
And she wakes up from a deeper sleep 
A nightmare through and through 
She won't stop trippin' on the daytime vibe 
But that's one thing I won't do 
Then it's over and back again 
And she's still on the attack 
But I'm convinced I've found a reason 
To keep her coming back

(Chorus)
F5
It's Over Now

Solo #1:
C5      G5      Bb5     F5_2
C5      G5      Bb5     B5

Bridge:
(Chords are picked after and until G5)
G5                      C
You won't ever be happier 
            Bb                                C
Until you find that special place where you belong 
Gm                    C
And you won't ever be happier 
Bb
Until you find that only way 
          G5
Until you find the only way back home

(Chorus)

Solo #2
(Done over chords from chorus)

Solo's/Reference Points:

*=
Here is the actual strumming for the intro
and first verse :
    Cadd9         G         Dm7               Fm9
-|----3-------3---3-------3-1-1-0-1-1-1-1-3---3-3-3-3-3-3-------------------|-
-|----3-------3---3-------3-3-3-3-3-3-3-3-3---1-1-1-1-1-1-------------------|-
-|----0-------0---0-------0-2-2-2-2-2-2-2-2---1-1-1-1-1-1-------------------|-
-|----2-------2---0-------0-0-0-0-0-0-0-0-0-3-3-3-3-3-3-3-------------------|-
-|--3-3-3-3-3-3-2-2-------2-------------------------------------------------|-
-|------------------3-3-3-3-------------------------------------------------|-

**=
This lead guitar fill is heard during the second line of the verses :
-|---------------|-
-|---------------|-
-|10/12-13\12----|-
-|-x/-x--x\-x----|-
-|-8/10-11\10----|-
-|---------------|-
  (Octives) 

Solo #1:
-|--------------------------------------------------------------------------|-
-|-------------------10-----------------10-10-13-11-10h11----11-10----------|-
-|-------9----9-9-------10----9h10-9----------------------12-------10h12-10-|-
-|-10-12---12-----12-------12--------12-------------------------------------|-
-|--------------------------------------------------------------------------|-
-|--------------------------------------------------------------------------|-
 Note : To add a little effect, add some vibrato to some of the notes         

Solo #1(Continued):
-|-13----13----13-17----17-17brbr-20brbr------------------------------------|-
-|----11----11-------15-----------------------------------------------------|-
-|--------------------------------------------------------------------------|-
-|--------------------------------------------------------------------------|-
-|--------------------------------------------------------------------------|-
-|--------------------------------------------------------------------------|-
 Note : On the last notes, you bend and release rapidly                     

Solo #2 :
-|--------------------------------------------------------------------------|-
-|--------------------------------------------------------------------------|-
-|/17-17-17-17--16--14--12--19--17--19--21-21--19--17--16--12--14--17-------|-
-|/-x--x--x--x---x---x---x---x---x---x---x--x---x---x---x---x---x---x-------|-
-|/15-15-15-15--14--12--10--17--15--17--19-19--17--15--14--10--12--15-------|-
-|--------------------------------------------------------------------------|-
Otros videos de esta canción
    58 exhibiciones
      • ½ Tono
      • A
      • Bb
      • B
      • C
      • Db
      • D
      • Eb
      • E
      • F
      • F#
      • G
      • Ab
    • Agregar a la lista

    Afinação da cifra

    Afinador online

      Ops (: Contenido disponible solo en portugués.
      OK