Cifra Club

Same old story

Neve

Cifrado: Principal (guitarra y guitarra eléctrica)
Selo Cifra Club: esta cifra foi revisada para atender aos critérios oficiais da nossa Equipe de Qualidade.
tono: Ab (forma dos acordes no tom de G) Capotraste na 1ª casa
Tuning:
Lead Guitar : Standard (EADGBe)
Rhythm Guitar/Clean : Standard w/ Capo on 1st fret (FA#D#G#Cf)

Intro/Chorus (Lead):     
-|--------------------------------------------------------------------------|-
-|--------------------------------------------------*-----------------------|-
-|-3-3---------7-7-7-7-7-7--3-3---------7-7-7-7-7-7--3-3--------7-7-7-7-7-7-|-
-|-3-3--3-3-3--7-7-7-7-7-7--3-3--3-3-3--7-7-7-7-7-7--3-3--3-3-3-7-7-7-7-7-7-|-
-|-1-1--3-3-3--5-5-5-5-5-5--1-1--3-3-3--5-5-5-5-5-5--1-1--3-3-3-5-5-5-5-5-5-|-
-|------1-1-1--------------------1-1-1--------------------1-1-1-------------|-
                                                                              
Intro/Chorus (Lead) cont. :
-|--------------------------|-
-|--------------------------|-
-|-3-3---------7------------|-
-|-3-3--3-3-3--7------------|-
-|-1-1--3-3-3--5------------|-
-|------1-1-1---------------|-

*Intro; Start playing at * (Rhythm`):
-|----------------------------------------------------|-
-|-------------------------------------------------2--|-
-|-2---2---1---1-1---1---1------1-2---2--1---1-1---1--|-
-|---2---2---2-----2---2---2--4-----2---2--2-----2----|-
-|----------------------------------------------------|-
-|----------------------------------------------------|-


Verse (Rhythm`):
-|-------------------------------------------------------------------|-
-|-----0-------0-------0-------0-------0-------0-------0-------0-----|-
-|---2---2---2---2-------1-------1---2---2---2---2-------1-------1---|-
-|-2-------2---------2-------2-----2-------2---------2-------2-------|-
-|-----------------2-------2-----------------------2-------2---------|-
-|-------------------------------------------------------------------|-
   Repeat 2x                                                                  

Bridge (Lead):                    
-|-----------------------------------------------|-
-|-----------------------------------------------|-
-|-5--------2---3----5--------2--3------7--9--10-|-
-|-5----5---2---3----5----5---2--3---3--7--9--10-|-
-|-3----5---0---1----3----5---0--1---3--5--7--8--|-
-|------3-----------------3----------1-----------|-

Interlude (Rhythm`):
-|-------------0---------------------------0------------------|-
-|-----------0---------------------------0--------------------|-
-|-------3-------------2-2-2-1-------3-------------2-2-2-1----|-
-|---1-----1-------2-------------1-----1-------2--------------|-
-|-3---3---------2---2---------3---3---------0---0------------|-
-|------------------------------------------------------------|-
   Repeat 2x

Breakdown (Rhythm`):
-|-0---0-0-0--0---0-0-0--4---4-4-4-4-4-4--|-
-|-0---0-0-0--0---0-0-0--4---4-4-4-4-4-4--|-
-|-2---2-2-2--1---1-1-1--6---6-6-6-6-6-6--|-
-|-2-2-2-2-2--2---2-2-2--6-6-6-6-6-6-6-6--|-
-|------------2-2-2-2-2-------------------|-
-|----------------------------------------|-
   Repeat 4x

Fill (Lead):
-|-------------------|-
-|-/15-15-15-15-15---|-
-|-/14-14-14-14-14---|-
-|-------------------|-
-|-------------------|-
-|-------------------|-
  You can throw this
  fill in everytime D5 (x577xx)
  is played during the final chorus

  Note:
  ` : Fingering positions
  and chord values for clean 
  guitar correspond to the capo.
 

Order:
Intro
Verse
Chorus
Verse
Bridge
Chorus
Interlude
Breakdown
Chorus
Final Chorus
Otros videos de esta canción
    26 exhibiciones
      • ½ Tono
      • A
      • Bb
      • B
      • C
      • Db
      • D
      • Eb
      • E
      • F
      • F#
      • G
      • Ab
    • Agregar a la lista

    Afinação da cifra

    Afinador online

      Ops (: Contenido disponible solo en portugués.
      OK